rock
 
|tablatures   |lyrics   |discussion forums   |more tabs @ XGuitar.com

Helloween tabs

Hey Lord bass tab

F#||------------------|------------------|------------------|------------------|
C#||------------------|------------------|------------------|------------------|
G#||------------------|------------------|------------------|------------------|
D#||------------------|------------------|------------------|------------------|



------------------|------------------|------------------|-------------------|
------------------|------------------|------------------|-------------------|
------------------|------------------|------------------|----------------0--|
------------------|------------------|------------------|-------------------|



-------------------------|-------------------------|-------------------------|
-------------------------|-------------------------|-------------------------|
----0--0--0--0--0--0--2--|----2--2--2--2--2--2--3--|----3--3--3--3--3--3--5--|
-------------------------|-------------------------|-------------------------|



-------------------------|--------------------------|-------------------------|
-------------5--5-----7--|--7-----------------------|-------------------------|
----5--7--7--------7-----|-----0--0--0--0--0--0--2--|----2--2--2--2--2--2--3--|
-------------------------|--------------------------|-------------------------|



-------------------------|------------------|-------------------------|
-------------------------|------------------|-------------------------|
----3--3--3--3--3--3--5--|------------------|-------------------------|
-------------------------|------------------|--1--0--1----1--1--0--1--|



-------------------------|-------------------------|---------------------------|
-------------------------|-------------------------|---------------------------|
-------------0--3--2-----|--0-----0----0--0-----0--|------------3----5----3----|
----0--1--3-----------3--|-----1-------------3-----|----3---3------------------|



--------------------------|--------------------------|-------------------------|
--------------------------|-----------------0--2--3--|-------------------------|
--------------------------|-----------0--3-----------|--0-----0----0--0-----0--|
--3--1-1-1----1--1--0--1--|----1-1-3-----------------|-----1-------------3-----|



---------------------------|--------------------------|
---------------------------|--------------------------|
------------3----5----3----|--------------------------|
----3---5------------------|--1--0--1--0--1--0--1--0--|



--------------------------|--------------------------|------------------------|
--------------------------|--------------------------|------------------------|
--------------------------|--------------------------|--------------5----7----|
--3--0--3--0--3--0--3--0--|--1--0--1--0--1--0--1--0--|--3--0--3--0------------|



-----------------------|-------------------------|--------------------------|
-----------------------|-------------7--7--5-----|--------------------------|
---------3----3--3--5--|--5--5--7-------------7--|--8--8--8--8--7--5--------|
--5--------------------|-------------------------|--------------------8--5--|



--------------------------|-----------------------|-------------------------|
--------------------------|-----------------------|-------------7--7--5-----|
--------------------0--2--|--0------3----3--3--5--|--5--5--7-------------7--|
--3--3--3--5--0--3--------|-----------------------|-------------------------|



--------------------------|--------------------------|-------------------|
--------------------------|--------------------------|-------------------|
--8--8--8--8--7--5--------|--------------------0--2--|-------------------|
--------------------8--5--|--3--3--3--5--0--3--------|--1----------------|



--------------------|-------------------------|--------------------------|
--------------------|-------------------------|--------------------2--5--|
--------------------|-------------------------|--------------0--3--------|
--------------13/---|--1--0--1----1--0--1--0--|--1--0--1--3--------------|



-------------------------|---------------------------|
-------------------------|---------------------------|
--0-----0----0--0-----0--|------------3----5----3----|
-----1-------------3-----|----3---3------------------|



--------------------------|--------------------0--2--|-------------------------|
--------------------------|--------------0--2--------|-------------------------|
--------------------------|--------0--3--------------|--0-----0----0--0-----0--|
--3--1-1-1----1--1--0--1--|--1--3--------------------|-----1-------------3-----|



---------------------------|--------------------------|
---------------------------|--------------------------|
------------3----5----3----|--------------------------|
----3---5------------------|--1--0--1--0--1--0--1--0--|



--------------------------|--------------------------|------------------------|
--------------------------|--------------------------|------------------------|
--------------------------|--------------------------|--------------5----7----|
--3--0--3--0--3--0--3--0--|--1--0--1--0--1--0--1--0--|--3--0--3--0------------|



-----------------------|-------------------------|--------------------------|
-----------------------|-------------7--7--5-----|--3-----3-----2--0--------|
--0------3----3--3--5--|--5--5--7-------------7--|--------------------3-----|
-----------------------|-------------------------|-----1-----1-----------1--|



--------------------------|-----------------------|-------------------------|
--------------------------|-----------------------|-------------7--7--5-----|
--------------------0--2--|--0------3----3--3--5--|--5--5--7-------------7--|
--3--3--3--3--0--3--------|-----------------------|-------------------------|



--------------------------|--------------------------|
--------------------------|--------------------------|
--8--8--8--8--7--5--------|--------------------2--0--|
--------------------8--5--|--3--3--3--3--0--3--------|



--------------------------|-------------------------|-------------------------|
--------------------------|-------------------------|-------------------------|
--0--0--0--0--0--0--0--2--|----2--2--2--2--2--2--3--|----3--3--3--3--3--3--5--|
--------------------------|-------------------------|-------------------------|



--------------------------|-------------------------|-------------------------|
--------------5--5-----7--|-------------------------|-------------------------|
--5--5--7--7--------7-----|----0--0--0--0--0--0--2--|----2--2--2--2--2--2--3--|
--------------------------|-------------------------|-------------------------|



-------------2-----------|------------------------|--------------------------|
-------2--5-----2--5-----|------------------------|--------------------------|
----3--------------------|------------------------|--------------------------|
----------------------1--|------1--1--1--1--1--1--|--1--1--1--1--1--1--1--1--|



--------------------------|--------------------------|
--------------------------|--------------------------|
--0--0--0--0--0--0--0--0--|--0--0--0--0--0--0--0--0--|
--------------------------|--------------------------|



--------------------------|--------------------------|
--------------------------|--------------------------|
--------------------------|--------------------------|
--1--1--1--1--1--1--1--1--|--1--1--1--1--1--1--1--1--|



--------------------------|--------------------------|
--------------------------|--------------------------|
--------------------------|--------------------------|
--0--0--0--0--0--0--0--0--|--0--0--0--0--0--0--0--0--|



--------------------------|--------------------------|
--------------------------|--------------------------|
--------------------------|--------------------------|
--1--1--1--1--1--1--1--1--|--1--1--1--1--1--1--1--1--|



--------------------------|--------------------------|
--------------------------|--------------------------|
--0--0--0--0--0--0--0--0--|--0--0--0--0--0-----------|
--------------------------|-----------------0--5--3--|



--------------------------|--------------------------|
--------------------------|--------------------------|
--------------------------|--------------------------|
--1--1--1--1--1--1--1--1--|--1--1--1--1--1--1--1--1--|



--------------------------|--------------------------|
--------------------------|--------------------------|
--------------------------|--------------------------|
--0--0--0--0--0--0--0--0--|--0--0--0--0--0--0--1--3--|



--------------------------|--------------------------|
--------------------------|--------------------------|
--------------------------|--------------------------|
--1--1--1--1--1--1--1--1--|--1--1--1--1--1--1--1--1--|



--------------------------|--------------------------|
--------------------------|--------------------2-----|
--0--0--0--0--0--0--0--0--|--0--0--0--0--0--0-----0--|
--------------------------|--------------------------|



--------------------------|--------------------------|
--------------------------|--------------------------|
--------------------------|--------------------------|
--1--1--1--1--1--1--1--1--|--1--1--1--1--1--1--1--1--|



--------------------------|--------------------------|
--------------------------|--------------------------|
--------------------------|--------------------------|
--0--0--0--0--0--0--0--0--|--0--0--0--0--0--0--0--0--|



--------------------------|--------------------------|
--------------------------|--------------------------|
--------------------------|--------------------------|
--1--1--1--1--1--1--1--1--|--1--1--1--1--1--1--1--1--|



--------------------------|--------------------------|
--------------------------|--------------------2-----|
--0--0--0--0--0--0--0--0--|--0--0--0--0--0--0-----0--|
--------------------------|--------------------------|



--------------------------|--------------------------|-------------------|
--------------------------|--------------------------|-------------------|
--------------------------|--------------------------|-------------------|
--1--1--1--1--1--1--1--1--|--1--1--1--1--1--1--1--1--|--1----------------|



-------------------|--------------------------|-------------------------|
-------------------|--------------------------|-------------7--7--5-----|
-------------------|--0--0--0--3--3--3--3--5--|--5--5--7-------------7--|
--1----------------|--------------------------|-------------------------|



--------------------------|--------------------------|
--3-----3-----2--0--------|--------------------------|
--------------------3-----|--------------------------|
-----1-----1-----------3--|--3--3--3--3--0--3--3--3--|



--------------------------|-------------------------|
--------------------------|-------------7--7--5-----|
--0--0--0--3--3--3--3--5--|--5--5--7-------------7--|
--------------------------|-------------------------|



---------------------------|--------------------------|
--3-----3-----3--3--3--3-3-|--------------------------|
---------------------------|-----------------------0--|
-----1-----1---------------|--3--3--3--3--3--3--3-----|



--------------------------|-------------------------|-------------------------|
--------------------------|-------------------------|-------------------------|
--0--0--0--0--0--0--0--2--|----2--2--2--2--2--2--3--|----3--3--3--3--3--3--5--|
--------------------------|-------------------------|-------------------------|



-------------------------|-------------------------|-------------------------|
-------------7--5--------|-------------------------|-------------------------|
----5--7--7--------7--0--|----0--0--0--0--0--0--2--|----2--2--2--2--2--2--3--|
-------------------------|-------------------------|-------------------------|



-------------------------|--------------------------|-------------------------|
-------------------------|--------------5--5-----7--|-------------------------|
----3--3--3--3--3--3--3--|--5--5--7--7--------7-----|----0--0--0--0--0--0--2--|
-------------------------|--------------------------|-------------------------|



-------------------------|-------------------------|-------------------------|
-------------------------|-------------------------|-------------5--5--------|
----2--2--2--2--2--2--3--|----3--3--3--3--3--3--5--|----5--7--7--------7--0--|
-------------------------|-------------------------|-------------------------|



------------------|------------------|------------------|------------------|
------------------|------------------|------------------|------------------|
------------------|------------------|------------------|------------------|
------------------|------------------|------------------|------------------|



------------------|------------------||
------------------|------------------||
------------------|------------------||
------------------|------------------||
  development and support by
dmitry ivanov