rock
 
|tablatures   |lyrics   |discussion forums   |more tabs @ XGuitar.com

Helloween tabs

Heavy Metal Is The Law bass tab

Heavy Metal (Is The Law)
by
HELLOWEEN

BASS TAB
Transcribed by Guilherme Braga

Crowd, drum intro.

|-------------------------------------------------------------------------------
|---------------------------------------------------0-------------/55555555-----
|-----6-5-3---------------6-5-3-------------------1---------------------------5-
|-3-r-------6-3-3-3-3-3-3-------6-1-1-1-1-1-1-1-3-----3-3-3-3-3-3-----------3---

--------------------------------------------------------------------------------
--------------------------------------------------------------------------------
-------------------------------------------------6-5-3--------------------------
-6p3-3-3-3-3-3-3-6p3-3-3-3-3-3-3-6p3-3-3-3-3-3-3-------6-6p3-3-3-3-3-3-3-6p3-3-3

--------------------------------------------------------------------------------
--------------------------------------------------------------------------------
-------------------------6-5-3--------------------------------------------------
-3-3-3-3-6h3-3-3-3-3-3-3-------6-0h1-1-1-1-1-1-1-0h1-1-1-1-1-1-1-0h1-1-1-1-1-1-1

--------------------------------------------------------------------------------
-------0---------------------------------/55555555------------------------------
-----1-----------------------------------------------5--------------------------
-1-3-----6p3-3-3-3-3-3-3-6p3-3-3-3-3-3-3-----------3---6p3-3-3-3-3-3-3-6p3-3-3-3

--------------------------------------------------------------------------------
--------------------------------------------------------------------------------
-----------------------6-5-3---------------------------------------------------6
-3-3-3-6p3-3-3-3-3-3-3-------6-6p3-3-3-3-3-3-3-6p3-3-3-3-3-3-3-6p3-3-3-3-3-3-3--

--------------------------------------------------------------------------------
-------------------------------------------------------------0------------------
-5-3-------------------------------------------------------1--------------------
-----6-0h1-1-1-1-1-1-1-0h1-1-1-1-1-1-1-0h1-1-1-1-1-1-1-1-3-----6p3-3-3-3-3-3-3--

--------------------------------------------------------------------------------
--------------------------------------------------------------------------------
--------------------------------6-5-3---------0-3-1-0---------------------------
6p3-3-3-3-3-3-3-6p3-3-3-3-3-3-3-------6-3-1-3---------1-0h1-1-1-1-1-1-1-0h1-1-1-

--------------------------------------------------------------------------------
--------5-5-5-5-3-3-3-3-------------------------------------------------5-5-5-5-
------------------------6-6-6-6-5-5-5-5-----------------------------------------
1-1-1-1---------------------------------0h1-1-1-1-1-1-1-0h1-1-1-1-1-1-1---------

--------------------------------------------------------------------------------
3-3-3-3-------------------------------------------------------------------3-----
--------6-6-6-6-5-5-5-5-5-5-5-5-5-5-5-5-5-5-5-5-5-5-5-5-5-5-5-5-5-5-5-5-6-------
----------------------------------------------------------------------------6p3-

--------------------------------------------------------------------------------
--------------------------------------------------------------------------------
--------------------------------------------6-5-3-------------------------------
3-3-3-3-3-3-6p3-3-3-3-3-3-3-6p3-3-3-3-3-3-3-------6-6p3-3-3-3-3-3-3-6p3-3-3-3-3-

--------------------------------------------------------------------------------
--------------------------------------------------------------------------------
--------------------6-5-3-------------------------------------------------------
3-3-6p3-3-3-3-3-3-3-------6-0h1-1-1-1-1-1-1-0h1-1-1-1-1-1-1-0h1-1-1-1-1-1-1-1-3-

--------------------------------------------------------------------------------
--0---------------------------3-4-5-3-------------------------------------------
1-------------------------3-5---------5-4-3-------------------------------------
----6p3-3-3-3-3-3-3-6-3-6-------------------6p3-3-3-3-3-3-3-6p3-3-3-3-3-3-3-6p3-

--------------------------------------------------------------------------------
--------------------------------------------------------------------------------
------------6-5-3---------------------------------------------------6-5-3-------
3-3-3-3-3-3-------6-6p3-3-3-3-3-3-3-6p3-3-3-3-3-3-3-6p3-3-3-3-3-3-3-------6-0h1-

--------------------------------------------------------------------------------
--------------------------------------------------0-----------3-4-5-0h3---------
------------------------------------------------1---------3-5-----------5-4-3---
1-1-1-1-1-1-0h1-1-1-1-1-1-1-0h1-1-1-1-1-1-1-1-3-----6-3-6---------------------6-

--------------------------------------------------------------------------------
------------------------------------------------------5-5-5-5-3-3-3-3-----------
------------0-3-1-0---------------------------------------------------6-6-6-6-5-
5-3-1-3-1-3---------1-0h1-1-1-1-1-1-1-0h1-1-1-1-1-1-1---------------------------

--------------------------------------------------------------------------------
----------------------------------------5-5-5-5-3-3-3-3-------------------------
5-5-5---------------------------------------------------6-6-6-6-5-5-5-5-5-5-5-5-
------1-0h1-1-1-1-1-1-1-0h1-1-1-1-1-1-1-----------------------------------------

--------------------------------------------------------------------------------
--------------------------------------------------------------------------------
5-5-5-5-5-5-5-5-5-5-5-5-5-5-5-5-5-5-5-5-6----------------6-6-6-6-1-1-1-1-5-5-5-5
-------------------------------------------------3-3-3-3------------------------

-----------------------------5-7------------------------------------------------
-----------------------5-7-8----------------------------------------------------
-6-6-6-6-8-8-8-8-5-6-8-----------6-6-6-6-8-8-8-8-5-5-5-5---------6-6-6-6-8-8-8-8
---------------------------------------------------------3-3-3-3----------------

--------------------------------------------------------------------------------
----------------------------------------------------0-------------/55555555-----
------6-5-3---------------6-5-3-------------------1---------------------------5-
-3-r--------6-3-3-3-3-3-3-------6-1-1-1-1-1-1-1-3-----3-3-3-3-3-3-----------3---

------------------------------------------------------------7-5-----------------
------------------------------------------------------5-7-8---------------------
--------6-6-6-6-1-1-1-1-5-5-5-5-6-6-6-6-8-8-8-8-5-6-8-----------6-6-6-6-8-8-8-8-
3-3-3-3-------------------------------------------------------------------------

------------------------------------------------------------------------------5-
------------------------------------------------------------------------5-7-8---
5-5-5-5---------6-6-6-6-8-8-8-8-5-5-5-5-5-5-5-5-5-5-5-5-5-5-5-5-5-5-6-8---------
--------3-3-3-3-----------------------------------------------------------------

7-------------------------------------------------------------------------------
--------------------------------------------------------------------------10-10-
----------6-6-6-6-3-3-3-3-0-0-------------5-5-5-5-1-1-1-1---------6-6-6-6-------
--3-3-3-3---------------------3-3-1-1-1-1-----------------3-3-1-1---------------

--------------------------8-8-7-7-5-5-------------------------------------------
10-10-7-7-7-7-------------------------8-8-7-7-5-5-------------------------------
--------------8-8-6-6-5-5-------------------------8-8---------6-6-6-6-3-3-3-3-0-
------------------------------------------------------3-3-3-3-------------------

------------------------------------------------------------------------------8-
----------------------------------------------10-10-10-10-7-7-7-7---------------
0-------------5-5-5-5-1-1-1-1---------6-6-6-6---------------------8-8-6-6-5-5---
--3-3-1-1-1-1-----------------3-3-1-1-------------------------------------------


8-7-7-5-5-----------------------------------------------------------------------
----------8-8-7-7-5-5-----5-5-5-5-5-----------5-5-5-5-5-----------5-5-5-5-5-----
----------------------8-8-------------------------------------------------------
------------------------------------3-3-3-3-3-----------3-3-3-3-3-----------3-3-

--------------------------------------------------------------------------------
------5-5-5-5-5-----------------------------------------------------------------
--------------------------5-3-------------5-3-----------------------------------
3-3-3-----------3-3-3-3-3-----6-5-6-5-3-1-----6-5-6-5-3-1-1h3-3-3-3-3-3-3-1h3-3-

--------------------------------------------------------------------------------
--------------------------------------------------------------------------------
--------------------------------------------------------------------------------
--3-3-3-3-3-1h3-3-3-3-1-3--------1h3-3-3-3-3-3-3-1h3-3-3-3-3-3-3-1h3-3-3-3-1-3--

-------------------10-10-12-12-10-10--------------------------------------------
-------10-10-12-12-------------------12-12-11-11-10-10----10----3h5-3-----------
-10-13-------------------------------------------------13----10-------5-5-4-4-3-
--------------------------------------------------------------------------------

--------------------------------------------------------------------------10h12-
-------------------------------------------8-8-10-10-10/12-12-12-12-12-12-------
-3-----3-3----------------------8-10-10-10--------------------------------------
---6-6-----6-6-5-6-5-1-3--------------------------------------------------------

-12-12-12-10----12-10h12-10-----------------------------------------------------
-------------12-------------12-12-11-11-10-10-------10-10-----------------------
----------------------------------------------13-13-------13-13-12-13-12----10--
-------------------------------------------------------------------------13-----

--------------------------------------------------------------------------------
-------3h5-3--------------------------------------------------------------------
-------------5-5-4-4-3-3-----3-3------------------------------6-6-6-6-1-1-1-1-5-
-------------------------6-6-----6-6-5-6-5-1-3--------3-3-3-3-------------------

----------------------------------5-7-------------------------------------------
----------------------------5-7-8-----------------------------------------------
5-5-5-6-6-6-6-8-8-8-8-5-6-8-----------6-6-6-6-8-8-8-8-5-5-5-5---------6-6-6-6-8-
--------------------------------------------------------------3-3-3-3-----------

----------------------------------------------------5-7-------------------------
----------------------------------------------5-7-8-----------------------------
8-8-8-5-5-5-5-5-5-5-5-5-5-5-5-5-5-5-5-5-5-6-7-------------------6-6-6-6-1-1-1-1-
--------------------------------------------------------3-3-3-3-----------------

------------------------------------5-7-----------------------------------------
------------------------------5-7-8---------------------------------------------
5-5-5-5-6-6-6-6-8-8-8-8-5-6-8-----------6-6-6-6-8-8-8-8-5-5-5-5---------6-6-6-6-
----------------------------------------------------------------3-3-3-3---------

--------------------------------------------------------------------------------
--------------------------------------------------------------------------------
8-8-8-8-------------------------------------------------6-5-3---------0-3-1-0---
--------6p3-3-3-3-3-3-3-6p3-3-3-3-3-3-3-6p3-3-3-3-3-3-3-------6-3-1-3---------1-

-----------|
-----------|
-----------|
-3-3-3-3-3-|
  development and support by
dmitry ivanov