rock
 
|tablatures   |lyrics   |discussion forums   |more tabs @ XGuitar.com

Helloween tabs

Future World guitar tab

FUTURE WORLD 
Words & music by Kai Hansen
From the HELLOWEEN album KEEPER OFF THE SEVEN KEYS part I (Noise, 1987)

Transcribed by: Tom Grana

Well, well true metal heads. Here's a complete TAB version of one of the 
best metal tunes ever, Helloween's Future World, from their awsome Keeper...1. 
The song is pretty easy ecxept some of the stuff in the solo, and the first 
verse and the bridge require a fast and strong right hand. Though I'm not sure 
how to hit those E5 chords at the end of each verse. I think the timing should 
be correct. If you think there are some mistakes in my transcription, please 
E-mail me at metaltom@hotmail.com 
       
                                                                        Tom


Guitar 1: Kai
Guitar 2: Weiki
Guitar 3: Sorry, I can't tell if it's Kai or Weiki

Played in 4/4 at 195 bmp

Intro
-----

Riff A (Git. 1)

  PM------------------------------------------------------------------------|
e|------------------|------------------|------------------|------------------|
H|------------------|------------------|------------------|------------------|
G|------------------|-------9-7--------|------------------|-------9-7--------|
D|---9-7-9---9-7-9--|---9-7-----9-7-9--|---9-7-9---9-7-9--|---9-7-----9-7-9--|
A|-7-------7--------|-7----------------|-7-------7--------|-7----------------|
E|------------------|------------------|------------------|------------------|

Then

  Git. 2: (Git. 1 plays Riff A four times)
e|------------------|------------------|------------------|------------------|
H|------------------|------------------|------------------|------------------|
G|------------------|------------------|------------------|------------------|
D|-9----------------|------------------|-12---------------|------------------|
A|-7----------------|------------------|-10---------------|------------------|
E|------------------|------------------|------------------|------------------|


e|------------------|------------------|------------------|------------------|
H|------------------|------------------|------------------|------------------|
G|------------------|------------------|------------------|------------------|
D|-7----------------|------------------|-9----------------|-----------7-7-7--|
A|-5----------------|------------------|-7----------------|-----------5-5-5--|
E|------------------|------------------|------------------|------------------|


  Git. 1: rhy. fig. 1 (Git. 1 plays Riff A four times)
e|------------------|------------------|------------------|------------------|
H|------------------|------------------|------------------|------------------|
G|------------------|------------------|------------------|------------------|
D|-9----------------|------------------|-12---------------|------------------|
A|-7----------------|------------------|-10---------------|------------------|
E|------------------|------------------|------------------|------------------|


                                                              end rhy. fig. 1
e|------------------|------------------|------------------|------------------|
H|------------------|------------------|------------------|------------------|
G|------------------|------------------|------------------|------------------|
D|-7----------------|------------------|-9----------------|------------------|
A|-5----------------|------------------|-7----------------|------------------|
E|------------------|------------------|------------------|------------------|
                                                                 1. If you're
								       2. You


Verse 1
-------

  Git. 2:     
   PM----------------------------------------------------------------------|
e|------------------|------------------|------------------|------------------|
H|------------------|------------------|------------------|------------------|
G|------------------|------------------|------------------|------------------|
D|-9-9-9-9-9-9-9-9--|-9-9-9-9-9-9-9-99-|-5-5-5-5-5-5-5-55-|-9-9-9-9-9-9-9-99-|
A|-7-7-7-7-7-7-7-7--|-7-7-7-7-7-7-7-77-|-3-3-3-3-3-3-3-33-|-7-7-7-7-7-7-7-77-|
E|------------------|------------------|------------------|------------------|
   out there all...

   
   PM----------------------------------------------------------------------|
e|------------------|------------------|------------------|------------------|
H|------------------|------------------|------------------|------------------|
G|------------------|------------------|------------------|------------------|
D|-5-5-5-5-5-5-5-55-|-9-9-9-9-9-9-9-9--|-5-------4--------|-9-9-9-9-9-9-9-9--|
A|-3-3-3-3-3-3-3-33-|-7-7-7-7-7-7-7-7--|-3-------2--------|-7-7-7-7-7-7-7-7--|
E|------------------|------------------|------------------|-0-0-0-0-0-0-0-0--|
                                                                And If you're

Verse 2
-------

Git. 1 & 2

  PM--|      u   u   PM--|      u   u   PM--|      u   u   PM--|      u   u   
e|------------------|------------------|------------------|------------------|
H|------------------|------------------|------------------|------------------|
G|------------------|------------------|------------------|------------------|
D|-9-9-9---9-9-9-9--|-9-9-9---9-9-9-9--|-5-5-5---5-5-5-5--|-9-9-9---9-9-9-9--|
A|-7-7-7---7-7-7-7--|-7-7-7---7-7-7-7--|-3-3-3---3-3-3-3--|-7-7-7---7-7-7-7--|
E|------------------|------------------|------------------|------------------|
   running through..


  PM--|      u   u   PM--|      u   u                      PM--|      u   u   PM--|      u   u   
e|------------------|------------------|------------------|------------------|------------------|
H|------------------|------------------|------------------|------------------|------------------|
G|------------------|------------------|------------------|------------------|------------------|
D|-5-5-5---5-5-5-5--|-9-9-9---9-9-9-9--|-5-------4--------|-9-9-9---9-9-9-9--|-9-9-9---9-9-9-9--|
A|-3-3-3---3-3-3-3--|-7-7-7---7-7-7-7--|-3-------2--------|-7-7-9---7-7-7-7--|-7-7-7---7-7-7-7--|
E|------------------|------------------|------------------|-----0---0-0-0-0--|-----0---0-0-0-0--|
											2: One

Bridge
------

Git. 1 & 2

   PM----------------------------------------------------------------------|  
e|------------------|------------------|------------------|------------------|
H|------------------|------------------|------------------|------------------|
G|------------------|-----7-------7----|------------------|-----7-------7----|
D|-----5-------5----|---7---7---7---7--|-----5-------5----|---7---7---7---7--|
A|---5---5---5---5--|-5-------5--------|---5---5---5---5--|-5-------5--------|
E|-3-------3--------|------------------|-3-------3--------|------------------|   
  1. We all live..
 (2) day you'll..  


   PM--------------------------------|      PM--|      PM                     
e|------------------|------------------|------------------|------------------|
H|------------------|------------------|------------------|------------------|
G|------------------|-----7-------7----|------------------|------------------|
D|-----5-------5----|---7---7---7---7--|------------------|------------------|
A|---5---5---5---5--|-5-------5--------|-7---7-7-7-----7--|-7---5---4---2----|
E|-3-------3--------|------------------|-5---5-5-5-----5--|-5---3---2---0----|

  
   PM----------------------------------------------------------------------|  
e|------------------|------------------|------------------|------------------|
H|------------------|------------------|------------------|------------------|
G|------------------|-----7-------7----|------------------|-----7-------7----|
D|-----5-------5----|---7---7---7---7--|-----5-------5----|---7---7---7---7--|
A|---5---5---5---5--|-5-------5--------|---5---5---5---5--|-5-------5--------|
E|-3-------3--------|------------------|-3-------3--------|------------------|   

  
   PM---------------------------------------------------|                     
e|------------------|------------------|------------------|------------------|
H|------------------|------------------|------------------|------------------|
G|------------------|------------------|-----7-------7----|------------------|
D|-----5-------5----|-----7-------7----|---7---7---7---7--|-7----------------|
A|---5---5---5---5--|---7---7---7---7--|-5-------5--------|-5----------------|
E|-3-------3--------|-5-------5--------|------------------|------------------|
     									Cause


Chorus
------

Git.1 & 2:

e|------------------|------------------|------------------|------------------|
H|------------------|------------------|------------------|------------------|
G|------------------|------------------|------------------|------------------|
D|-9----------------|------------------|-5-------7--------|-9----------------|
A|-7----------------|------------------|-3-------5--------|-7----------------|
E|-0----------------|------------------|------------------|-0----------------|
   We all live..

e|------------------|------------------|------------------|------------------|
H|------------------|------------------|------------------|------------------|
G|------------------|------------------|------------------|------------------|
D|-5----------------|-2----------------|-4----------------|------------------|
A|-3----------------|-0----------------|-2----------------|------------------|
E|------------------|------------------|------------------|-----5p0-3p0-2p0--|


e|------------------|------------------|------------------|------------------|
H|------------------|------------------|------------------|------------------|
G|------------------|------------------|------------------|------------------|
D|-9----------------|------------------|-5-------7--------|-9----------------|
A|-7----------------|------------------|-3-------5--------|-7----------------|
E|-0----------------|------------------|------------------|-0----------------|


e|------------------|------------------|
H|------------------|------------------|
G|------------------|------------------|
D|-5----------------|-4----------------|
A|-3----------------|-2----------------|
E|------------------|------------------|


Main Riff
---------


Git. 1: Rhy. fig. 1 
Git. 2: Main riff four times
Notice that this time it's Weiki and not Kai that plays the Mainriff



Verse 3
-------

Git. 1 & 2: (with flanger effect)

e|------|------|------|------|------|------|------|------|
H|------|------|------|------|------|------|------|------|
G|------|------|------|------|------|------|------|------|
D|-9----|------|-5----|-9----|-5----|-9----|-5-4--|-2----|
A|-7----|------|-3----|-7----|-3----|-7----|-3-2--|-2----|
E|-0----|------|------|-0----|------|-0----|------|-0----|
  say you'd..


Verse 4
-------

Similar to verse 2
(Life can be..)


Chorus
------


Interlude
--------

  Git. 1 & 2 
                                                                  
e||-----------------------------------|----------------------------------|
H||-----------------------------------|----------------------------------|
G||-.---------------------------------|----------------------------------|
D||-.---------------------------------|----------------------------------|
A||--7---7---7---7---7---7---7---7----|-7---7---7---7---7---7---7---7-7--|
E||-----------------------------------|----------------------------------|


e|----------------------------------|-----------------------------------||
H|----------------------------------|-----------------------------------||
G|----------------------------------|---------------------------------.-||
D|-5---5---5---5---5---5---5---5----|-5---5---5---5---5---5---5---5-5-.-||
A|----------------------------------|-----------------------------------||
E|----------------------------------|-----------------------------------||


Theese three bars are played in half-time

e|----------|----------|----------|
H|----------|----------|----------|
G|----------|----------|----------|
D|-4-4-4----|-4--------|-4-4-4----|
A|-2-2-2----|-2--------|-2-2-2----|
E|----------|----------|----------|


Solo
----

  Git.1

e|----------------------------------|-----------------------------14---|
H|----------------------------------|-----------------13--15--17-------|
G|----------------------------------|-----12--14--16-------------------|
D|-------------------------12--14---|-16-------------------------------|
A|-------------12--14--15-----------|----------------------------------|
E|-12--14--15-----------------------|----------------------------------|
 |                                                                     |
 |Git 2:                                                               |
 |                                                                     |
e|----------------------------------|-----------------------------10---|
H|----------------------------------|-----------------10--12--13-------|
G|----------------------------------|-----9---11--12-------------------|
D|-------------------------9---10---|-12-------------------------------|
A|-------------9---10--12-----------|----------------------------------|
E|-8---10--12-----------------------|----------------------------------|


Git. 3 plays rhythm slashes

   E5                                 B5
   /                                  /
   bf              bf
e|-17--------------17----------14---|-17-------------------------------|
H|----------------------------------|-----15---------------------------|
G|----------------------------------|----------------------------------|
D|----------------------------------|----------------------------------|
A|----------------------------------|----------------------------------|
E|----------------------------------|----------------------------------|
 |                                                                     |
 | bf              bf                                                  | 
e|----------------------------------|----------------------------------|
H|-15--------------15----------12---|-15-------------------------------|
G|----------------------------------|-----12---------------------------|
D|----------------------------------|----------------------------------|
A|----------------------------------|----------------------------------|
E|----------------------------------|----------------------------------|


 E5                                 B5
   /                                  /
   bf      bf      bf  r   
e|-17------17------17------14--17---|-------------------------12-------|
H|----------------------------------|----------------------------------|
G|----------------------------------|----------------------------------|
D|----------------------------------|----------------------------------|
A|----------------------------------|----------------------------------|
E|----------------------------------|----------------------------------|
 |                                                                     |
 | bf      bf      bf  r                                               | 
e|----------------------------------|----------------------------------|
H|-15------15------15------12--15---|----------------------------------|
G|----------------------------------|----------------------------------|
D|----------------------------------|----------------------------------|
A|----------------------------------|----------------------------------|
E|----------------------------------|----------------------------------|


  C5                                 D5
   /                                  /
e|-15--12--14------12---------------|----------------------------------|
H|-------------15------13--15--12---|-13------12-----------------------|
G|----------------------------------|-----14------12--14--11--12-------|
D|----------------------------------|-----------------------------14---|
A|----------------------------------|----------------------------------|
E|----------------------------------|----------------------------------|
 |                                                                     |
 |                                                                     | 
e|-19--15--17------15---------------|----------------------------------|
H|-------------19------17--19--15---|-17------15-----------------------|
G|----------------------------------|-----17------16--17--14--16-------|
D|----------------------------------|-----------------------------17---|
A|----------------------------------|----------------------------------|
E|----------------------------------|----------------------------------|

  B5
  /
                                      bh  r                       
e|------------------------1214151412|-14------12--14-------------------|
H|-------------12--13--15-----------|-----------------15---------------|
G|-11--12--14-----------------------|----------------------------------|
D|----------------------------------|----------------------------------|
A|----------------------------------|----------------------------------|
E|----------------------------------|----------------------------------|
 |                                                                     |
 |                                    bf  r                            | 
e|------------------------1517191715|-17----------15--14---------------|
H|-------------15--17--19-----------|----------------------------------|
G|-14--16--17-----------------------|----------------------------------|
D|----------------------------------|----------------------------------|
A|----------------------------------|----------------------------------|
E|----------------------------------|----------------------------------|


   E5                                 B5
   /                                  /
   bf              bf  r                      bf
e|-17--------------17------14-------|-17-----(17)----------------------|
H|----------------------------------|----------------------------------|
G|----------------------------------|----------------------------------|
D|----------------------------------|----------------------------------|
A|----------------------------------|----------------------------------|
E|----------------------------------|----------------------------------|
 |                                                                     |
 | bh              bh  r                      bh                       | 
e|-14--------------14------12-------|-14-----(14)----------------------|
H|----------------------------------|----------------------------------|
G|----------------------------------|----------------------------------|
D|----------------------------------|----------------------------------|
A|----------------------------------|----------------------------------|
E|----------------------------------|----------------------------------|

   E5                                 B5
   /                                  /
   bf              bf*
e|-22--------------24---------------|-19-------------------------------|
H|----------------------------------|----------------------------------|
G|----------------------------------|----------------------------------|
D|----------------------------------|----------------------------------|
A|----------------------------------|----------------------------------|
E|----------------------------------|----------------------------------|
 |                                                                     |
 | bh              bf                                                  | 
e|-19--------------20---------------|----------------------------------|
H|----------------------------------|-20-------------------------------|
G|----------------------------------|----------------------------------|
D|----------------------------------|----------------------------------|
A|----------------------------------|----------------------------------|
E|----------------------------------|----------------------------------|

* If you don't have 24 frets on your guitar, you can bend the vib. arm the wrong way,
  or you bend the string two whole step. Both these things are unfortnally a extreme
  strain on your strings


  C5                                     D5
   /                                      /
e|-22-20-19-20-19-17-19-17----17--------|--------------------------------------|
H|-------------------------20----20-19--|-20-19-17-19-17----17-----------------|
G|--------------------------------------|----------------19----19-17-19-17-16--|
D|--------------------------------------|--------------------------------------|
A|--------------------------------------|--------------------------------------|
E|--------------------------------------|--------------------------------------|
 |                                                                             |
 |                                                                             |
e|-19-17----17--------------------------|--------------------------------------|
H|-------20----20-19-20-19-17-19-17-----|-17-----------------------------------|
G|----------------------------------19--|----19-17-19-17-16-17-16----16--------|
D|--------------------------------------|-------------------------19----19-17--|
A|--------------------------------------|--------------------------------------|
E|--------------------------------------|--------------------------------------|



  H5                                     D5
   /                                      /
                                         bh
e|----------------------17-19-22-20-19--|--------------------------------------|
H|-------------17-19-20-----------------|-19-----------------------------------|
G|----16-17-19--------------------------|--------------------------------------|
D|-19-----------------------------------|--------------------------------------|
A|--------------------------------------|--------------------------------------|
E|--------------------------------------|--------------------------------------|
 |                                                                             |
 |                                        bf                                   |
e|----------------------------19-17-----|--------------------------------------|
H|-------------------17-19-20-------20--|--------------------------------------|
G|----------16-17-19--------------------|-19-----------------------------------|
D|-16-17-19-----------------------------|--------------------------------------|
A|--------------------------------------|--------------------------------------|
E|--------------------------------------|--------------------------------------|



   E5                              
   /                                 
   bf      r       bf      r          bf              bf      r     
e|----------------------------------|----------------------------------|
H|----------------------------------|----------------------------------|
G|-14----------12--14----------12---|-14----------12--14----------12---|
D|----------------------------------|----------------------------------|
A|----------------------------------|----------------------------------|
E|----------------------------------|----------------------------------|
 |                                                                     |
 | bf      r       bf      r          bf              bf      r        | 
e|----------------------------------|----------------------------------|
H|-13----------12--13----------12---|-13----------12--13----------12---|
G|----------------------------------|----------------------------------|
D|----------------------------------|----------------------------------|
A|----------------------------------|----------------------------------|
E|----------------------------------|----------------------------------|


   C5               D5                E5
   /                /                 /
    bf              r   b   r            
e|----------------------------------|----------------------------------|
H|-15-------------------------------|-12-------------------------------|
G|----------------------------------|----------------------------------|
D|----------------------------------|----------------------------------|
A|----------------------------------|----------------------------------|
E|----------------------------------|----------------------------------|
 |                                                                     |
 | bf              r   b   r                                           | 
e|-14-------------------------------|----------------------------------|
H|----------------------------------|-15-------------------------------|
G|----------------------------------|----------------------------------|
D|----------------------------------|----------------------------------|
A|----------------------------------|----------------------------------|
E|----------------------------------|----------------------------------|


   E5                           
   /
   bf      r       bf      r          bf              bf      r     
e|----------------------------------|----------------------------------|
H|----------------------------------|----------------------------------|
G|-14----------12--14----------12---|-14----------12--14----------12---|
D|----------------------------------|----------------------------------|
A|----------------------------------|----------------------------------|
E|----------------------------------|----------------------------------|
 |                                                                     |
 | bf      r       bf      r          bf              bf      r        | 
e|----------------------------------|----------------------------------|
H|-13----------12--13----------12---|-13----------12--13----------12---|
G|----------------------------------|----------------------------------|
D|----------------------------------|----------------------------------|
A|----------------------------------|----------------------------------|
E|----------------------------------|----------------------------------|


  C5               D5                E5
   /                /                 /
   bf              r   b   r                   
e|----------------------------------|----------------------------------|
H|-15-------------------------------|-12-------------------------------|
G|----------------------------------|----------------------------------|
D|----------------------------------|----------------------------------|
A|----------------------------------|----------------------------------|
E|----------------------------------|----------------------------------|
 |                                                                     |
 | bf              r   b   r                                           | 
e|-14-------------------------------|----------------------------------|
H|----------------------------------|-15-------------------------------|
G|----------------------------------|----------------------------------|
D|----------------------------------|----------------------------------|
A|----------------------------------|----------------------------------|
E|----------------------------------|----------------------------------|



e|-19p-15----------19p-15----------19p-15--20p-15--19p-15-----------|
H|---------19p-15----------19p-15--------------------------19p-15---|
G|------------------------------------------------------------------|
D|------------------------------------------------------------------|
A|------------------------------------------------------------------|
E|------------------------------------------------------------------|
 |                                                                  |
 |                                                                  | 
e|------------------------------------------------------------------|
H|------------------------------------------------------------------|
G|------------------------------------------------------------------|
D|------------------------------------------------------------------|
A|---------------------------------0---------------2----------------|
E|-3----------------------------------------------------------------|


e|-19p-15----------19p-15----------19p-15--20p-15--19p-15-----------|
H|---------19p-15----------19p-15--------------------------19p-15---|
G|------------------------------------------------------------------|
D|------------------------------------------------------------------|
A|------------------------------------------------------------------|
E|------------------------------------------------------------------|
 |                                                                  |
 |                                                                  | 
e|------------------------------------------------------------------|
H|------------------------------------------------------------------|
G|------------------------------------------------------------------|
D|-0-------------------------------2---------------4----------------|
A|------------------------------------------------------------------|
E|------------------------------------------------------------------|


e|-17p-15----------17p-15----------17p-15--19p-15--17p-15-----------|
B|---------19p-15----------19p-15--------------------------19p-15---|
G|------------------------------------------------------------------|
D|------------------------------------------------------------------|
A|------------------------------------------------------------------|
E|------------------------------------------------------------------|
 |                                                                  |
 |                                                                  | 
e|------------------------------------------------------------------|
H|------------------------------------------------------------------|
G|------------------------------------------------------------------|
D|------------------------------------------------------------------|
A|---------------------------------0---------------2----------------|
E|-3----------------------------------------------------------------|


e|-17p-15----------17p-15----------19p-15--20p-15--19---------------|
B|---------19p-15----------19p-15-----------------------------------|
G|------------------------------------------------------------------|
D|------------------------------------------------------------------|
A|------------------------------------------------------------------|
E|------------------------------------------------------------------|
 |                                                                  |
 |                                                                  | 
e|------------------------------------------------------------------|
H|------------------------------------------------------------------|
G|------------------------------------------------------------------|
D|-0-------------------------------2---------------4----------------|
A|------------------------------------------------------------------|
E|------------------------------------------------------------------|


G|----------------------------------|----------------------------------|
D|----------------------------------|----------------------------------|
A|---------------------9---11--12---|-----------------9-------9---11---|
E|---------9---10--12---------------|-----9---11--12------12-----------|
G|-10--12---------------------------|-12-------------------------------|
D|----------------------------------|----------------------------------|
 |                                                                     |
 |                                                                     |
A|----------------------------------|----------------------------------|
E|-------------------------10--12---|----------------------------------|
G|-------------9---11--12-----------|-------------11--12--11--12--14---|
D|-9---10--12-----------------------|-11--12--14-----------------------|
A|----------------------------------|----------------------------------|
E|----------------------------------|----------------------------------|


G|----------------------------------|----------------------------------|
D|----------------------------------|----------------------------------|
A|----------------------------------|----------------R-----------------|
E|-12-------------------------------|----------------------------------|
G|----------------------------------|----------------------------------|
D|----------------------------------|----------------------------------|
 |                                                                     |
 |                                                                     |
A|----------------------------------|----------------------------------|
E|----------------------------------|----------------------------------|
G|-11-------------------------------|----------------R-----------------|
D|----------------------------------|----------------------------------|
A|----------------------------------|----------------------------------|
E|----------------------------------|----------------------------------|


Outro chorus
------

The first 13 bars are similar to the previous choruses, but you've got to 
add a cople of bars at the end


e|------------------|------------------|------------------|------------------|------------------|
H|------------------|------------------|------------------|------------------|------------------|
G|------------------|------------------|------------------|------------------|------------------|
D|-4-x-x-x-x-x-x-x--|-5----------------|-4----(bass)------|-5----(drums)-----|-4-------7---7----|
A|-2-x-x-x-x-x-x-x--|-3----------------|-2----------------|-3----------------|-2-------5---5----|
E|------------------|------------------|------------------|------------------|------------------|
   me                 Come  with..                                                     Future 
   I don't know how to 
   tab this, but it's 
   produced by hitting
   the string with the 
   edge of the pick

                              play 3 times          
e||-------------------|--------------------||-------------------|
H||-------------------|--------------------||-------------------|
G||.------------------|------------------.-||-------------------|
D||.-9----------------|---------7---7----.-||-9-----------------|
A||--7----------------|---------5---5------||-7-----------------|
E||-------------------|--------------------||-------------------|
    World                      Future         World






******************************************
TAB symbols

p: pull-off
bh: bend a half step (half note)
bf: bend a full step (whole note)
u: ustorke
/: rhythm slash - Strike the notated chord
PM: Palm muting
r: release
R: Rest (Don't play at all)
******************************************
  development and support by
dmitry ivanov