rock
 
|tablatures   |lyrics   |discussion forums   |more tabs @ XGuitar.com

Helloween tabs

Future World bass tab

Author/Artist: Helloween
Title: Future World
Album: Keeper Of The Seven Keys part 1
Transcribed by: André Baida from BRAZIL
Email: andrecp@bestway.com.br

Intro

G----------------------------------------|-------------------------------------
D----------------------------------------|-------------------------------------
A------------------5-5-5-----------5-5-5-|---------------------------------5---
E--0-0-0---3-3-3-----------0-0-0---------|-0-0-0-0-0-0-0-0-3-3-3-3-3-3-3-3-----
                                                                              
						   
								
G------------------------------------|-----------------------------------------
D------------------------------------|-----------------------------------------
A-5-5-5-5-5-5-5-5---------5-5-5-5-7--|-----------------------------------------
E-----------------0-0-0-0------------|-----------------------------------------
                                                                              
Vocals

G------------------------------------------------------------------------------
D------------------------------------------------------------------------------
A-7-7-7-7-7-7-7-7-3-3-3-3-7-7-7-7-3-3-3-3-7-7-7-7-3-3-3-3-2-2-2-2-7-7-7-7-7-7--
E------------------------------------------------------------------------------
                                                                              
Bridge

G------------------------------------------------------------------------------
D------------------------------------------------------------------------------
A-----------------5-5-5-5-5-5-5-5-----------------5-5-5-5-5-5-5-5--------------
E-3-3-3-3-3-3-3-3-----------------3-3-3-3-3-3-3-3-----------------3-3-3-3-3-3--
                                                                              

G----------------------------------|-------------------------------------------
D----------------------------------|-------------------------------------------
A-----5-5-5-5-5-5-5-5--------------|-----------------5-5-5-5-5-5-5-5-----------
E-3-3-----------------5-5-5-3-2-0--|-3-3-3-3-3-3-3-3-----------------3-3-3-3---
                                                                              

G-------------------------------------------------------|----------------------
D-------------------------------------------------12----|----------------------
A---------5-5-5-5-5-5-5-5-----------------5-5-5-5-------|----------------------
E-3-3-3-3-----------------3-3-3-3-5-5-5-5---------------|----------------------
                                                                              
Chorus

G------------------------------------------------------------------------------
D------------------------------------------------------------------------------
A-7-7-7-7-7-7-7-7-3-3-5-5-7-7-7-7-3-3-3-3-0-0-0-0-2-2-2-2--3---2---------------
E------------------------------------------------------------5---3-5-3-2-3-----
                                                                              

G----------------------------------------------------|-------------------------
D----------------------------------------------------|-------------------------
A-7-7-7-7-7-7-7-7-3-3-5-5-7-7-7-7-3-3-3-3-3-3-3-2----|-------------------------
E----------------------------------------------------|-------------------------
                                                                              
Vocals II

G----------------------------------------------------------------|-------------
D-------4h5p4-----4h5p4---4h5p4---4h5p4---4h5p4-------------7h9--|-------------
A-7-5-7-------5-3-------7-------3-------7-------3-2--7-9-10------|-------------
E----------------------------------------------------------------|-------------
                                                                              
Repeat Vocals, Bridge and Chorus and then: 


G------------------------------------------------------------------------------
D-----------------------------5---5--------------------------------5---5-------
A------------------------------------------------------------------------------
E-0-0-0-0-0-0-0-0-3-3-3-3-3-3---3---3---0-0-0-0-0-0-0-0-3-3-3-3-3-3--3---3-----


G------------------------------------------------------------------------------
D--------4h5p4--------------------------4-5--------4h5p4-----------------------
A--------------7-5-4-5--------4h5p4h5-7------------------7-5-4-5--3-3-3-3-5-5--
E--7-7-7----------------7-7-7----------------7-7-7-----------------------------
                                                                              
	   Duet
G------|-----------------------------------------------------------------------
D------|-----------------------------------------------------------------------
A-5-5--|--7-7-7-7h9---------7-9-10-9-7h9---------------------------------------
E------|------------7-7-7-7--------------7-7-7-7-8-8-8-8-10-10-10-10-7-7-7-7---
                                                                              

G------------------------------------------------------------------------------
D------------------------------------------------------------------------------
A----7----------------7-7-7-7---------7-9-10-9-7h9-----------------------------
E-10---10-8-10-8-7-8----------7-7-7-7--------------7-7-7-7-8-8-8-8-10-10-10----
                                                                              

G------------------------------------------------------------------------------
D------------------------------------------------------------------------------
A------------5-5-5-5---7-7-7-7-7-7-7-7-3-3-5-5-7-7-7-7-7-7-7-7-7-7-7-7-7-3-3---
E-10-7-7-7-7-------------------------------------------------------------------
                                                                              

G------------------------------------------------------------------------------
D------------------------------------------------------------------------------
A-5-5-7-7-7-7-7-7-7-7------------5-5-5-5-5-----------5-5-5-5-5-----------------
E----------------------3-3-3-3-3-----------3-3-3-3-3-----------3-3-3-3-5-5-5---
                                                                              

G--------------|---------------------------------------------------------------
D-----------12-|---------------------------------------------------------------
A---5-5-5-5----|---------------------------------------------------------------
E-5------------|---------------------------------------------------------------
                                                                              
repeat Chorus and then: "come with me....come with me.....come with me future world"

G------------------------------------------------------------------------------
D------------------------------------------------------------------------------
A---3-3-2----------3-3-2--6h7p6----------3-3-2-5-5-7-7-7-7-7-7-7-7-7-7-5-5-7---
E-------------------------------9-7-6-7----------------------------------------
                                                                              
"Future world...future woOrld...FUTURE WORLD"
G-----------------------------------------------9------------------------------
D-----------------------------------------------9------------------------------
A-7-7-7-7-7-7-7-7-7-5-5-7-7-7-7-7-7-7-7-7-7-5-5-7------------------------------
E------------------------------------------------------------------------------
                                                                              

End.
  development and support by
dmitry ivanov