rock
 
|tablatures   |lyrics   |discussion forums   |more tabs @ XGuitar.com

Helloween tabs

Eagle Fly Free guitar tab

Eagle Fly Free
Helloween

Intro:                     
e:---------------------------------------------------------------------------|
B:---------------------------------------------------------------------------|
G:---------------------------------------------------------------------------|
D:--9--9----------------------------------------------7--7-------------------|
A:--7--7-----7-----9-----10-----7-----10-----9-----7--5--5--7-----9-----5----|
E:--------0-----0-----0------0-----0------0-----0--------------0-----0-----0-|
         (__________________________________________)      (_________________


e:----------------------------------------------------------------------|
B:----------------------------------------------------------------------|
G:----------------------------------------------------------------------|
D:----------------9--9-------------------------------------5-----4--8--9|
A:-9-----7-----5--7--7--7-----10-----7-----10-----9-----7--3--5--2--6--7|
E:----0-----0--------------0------0-----0------0-----0--------3---------|
  _______________)      (_________________________________)


  While Singing
e:---------------------------------------------------------------------------|
B:---------------------------------------------------------------------------|
G:---------------------------------------------------------------------------|
D:---------------------------------------------------------------------------|
A:-5555555-777-88-55-88-77-55-3333333-555-77-33-77-55-33-5555555-777-88-55-88|
E:---------------------------------------------------------------------------|
  (__________________________________________________________________________


                   Riff 1
e:----------------|----------------------------------------------------|
B:----------------|----------------------------------------------------|
G:----------------|----------------------------------------------------|
D:------3-----2--6|----------------------------------------------------|
A:-77-5-1--3--0--4|--5--0--5--0--88--77--5-----5--0--5--0--88--77--5---|
E:---------1------|-------------------------8-------------------------8|
  _____)            (__________________________________________________)


e:---------------------------|
B:Repeat-While-singing-plus=>|
G:---------------------------|
D:---------------------------|
A:---------------------------|
E:---------------------------|

  Riff 2
e:-----------------------------------------------------|
B:-----------------------------------------------------|
G:-----------------------------------------------------|
D:-----------------------------------------------------|
A:-5--0--5--0--88--77--5-----55--33--11----------------|
E:------------------------8--------------55--33--11--0-|
  (___________________________________________________)


  Bridge
e:-----------------------------|-------------|
B:-----------------------------|Repeat-Riff-2|
G:-----------------------------|-------------|
D:-7-----5-----7-----3-----2--6|-------------|
A:-5--5--3--7--5--5--1--3--0--4|-------------|
E:----3-----5-----3-----1------|-------------|


  Chorus
e:----------------------------------------------------------------------|
B:----------------------------------------------------------------------|
G:----------------------------------------------------------------------|
D:----5------7--2-----3------------a.h-----------5------7--2-----3--5---|
A:-3--3--4~--5--0--2--1--3--(7~--8~--9~--10~)-3--3--4~--5--0--2--1--3--3|
E:-1---------------0-----1--------------------1---------------0--------1|


e:--------------------|-------------|-------------|
B:Repeat-While-singing|Repeat-Bridge|Repeat-Chorus|
G:--------------------|-------------|-------------|
D:--------------------|-------------|-------------|
A:--------------------|-------------|-------------|
E:--------------------|-------------|-------------|


  Guitar Solo(Kai)
e:--20b(23)rb20~--22b(25)rb22~--25b(29)~-------------------------------------|
B:---------------------------------------------------------------------------|
G:-----------------------------------------------------------------------(12p|
D:---------------------------------------------------------------------------|
A:----------------------------------------15-15-14-14-12-12------------------|
E:----------------------------------------------------------15-14-13-12~-----|
                                         (_____________________________)

e:---------------------------------------------------------------------------|
B:-a.h----------------------------------------------------18b(20)rb18--17--18|
G:11h12p11)----------T--------T--------T--------T----------------------------|
D:----------14--12~--19-14h15-19-14h15-19-14h15-19-14h15---------------------|
A:---------------------------------------------------------------------------|
E:---------------------------------------------------------------------------|


e:---18b(20)-18--17--18--17--15--17--15------15------------------------------|
B:~--------------------------------------18-------18--16--18--16--15--16-----|
G:------------------------------------------------------------------------17-|
D:---------------------------------------------------------------------------|
A:---------------------------------------------------------------------------|
E:---------------------------------------------------------------------------|


e:-------------------------------------15--17--18--20b(22)--22b(24)\|
B:-15----------------------15--16--18-------------------------------|
G:-----17--15--14--15--17-------------------------------------------|
D:------------------------------------------------------------------|
A:------------------------------------------------------------------|
E:------------------------------------------------------------------|


  2ndGuitar solo(Both of guitars in the same tone)
e:---------------------------------------------------------------------------|
B:-20--20--19--19--20--20--17--17--20--20--19--19--20--20--17--17--19--19--17|
G:---------------------------------------------------------------------------|
D:---------------------------------------------------------------------------|
A:---------------------------------------------------------------------------|
E:--------------------------------------------------------------------------|


e:---------------------------------------------------------------------------|
B:--17--19--19--15--15--19--19--17--17--19--19--15--15--20--20--19--19--20--2|
G:---------------------------------------------------------------------------|
D:---------------------------------------------------------------------------|
A:---------------------------------------------------------------------------|
E:---------------------------------------------------------------------------|

                                            Riff 3
e:-----------------------------------------|-----20--19--17----------------|
B:0--17--17--20--20--19--19--20--20--17--17|-----------------20--19--17--16|
G:-----------------------------------------|-17----------------------------|
D:-----------------------------------------|-------------------------------|
A:-----------------------------------------|-------------------------------|
E:-----------------------------------------|-------------------------------|


e:-----------------------|----------20--19--17---------------------|
B:Repeat-all-the-2nd-solo|plus:-----------------20--19--17--16--17\|
G:-----------------------|------17---------------------------------|
D:-----------------------|-----------------------------------------|
A:-----------------------|-----------------------------------------|
E:-----------------------|-----------------------------------------|


   While bass is soloing...
e:-----------------------------------|
B:-----------------------------------|
G:-----------------------------------|
D:----7-----9-----7-----5-----4--8--9|
A:-7--5--9--7--7--5--5--3--5--2--6--7|
E:-5-----7-----5-----3-----3---------|


  3rdGuitar Solo(Weiki)
e:---------------------------------------------------------------------------|
B:----------------13---------------------------------------------------------|
G:-!7(dive-w/bar)-12b(14)--10------12--10------10----------------------------|
D:-----------------------------12----------12------12--10--12--10------10----|
A:-----------------------------------------------------------------12------12|
E:---------------------------------------------------------------------------|


e:---------------------------------------------------------------------------|
B:-----------------------------------------------------------------------15--|
G:-----------------------------------------------------------14--16--17------|
D:-----------------------------------------------13--14--16------------------|
A:--10--12--10-----------------------12--14--15------------------------------|
E:--------------13--10~--12--14--15------------------------------------------|


e:---------------------------------------------------------------------------|
B:17--18--17--15--------------20--19--17--------------22--21--19-------------|
G:----------------17--16--14--------------19--18--16--------------21--20--18-|
D:---------------------------------------------------------------------------|
A:---------------------------------------------------------------------------|
E:---------------------------------------------------------------------------|


e:-19--18--16--------------20b(22)--20--18--20--18--17--18--17--18------17---|
B:-------------19--18--16-------------------------------------------20------2|
G:---------------------------------------------------------------------------|
D:---------------------------------------------------------------------------|
A:---------------------------------------------------------------------------|
E:---------------------------------------------------------------------------|


e:---------------------------------------------------------------------------|
B:0--18--20--18--17--18--17------17------------------------------------------|
G:---------------------------19------19--17--19--17--17--17--15--15----------|
D:-------------------------------------------------------------------19--19--|
A:---------------------------------------------------------------------------|
E:---------------------------------------------------------------------------|


e:---------------------------------------------------------------------------|
B:----------------------------17--18--20--18--17--------------20--18--17-----|
G:----------------15--17--19----------------------19--17--15--------------19-|
D:17--15--17--19-------------------------------------------------------------|
A:---------------------------------------------------------------------------|
E:---------------------------------------------------------------------------|


e:-----------------------------------------|
B:---------20--18--17--------------20b(22)\|
G:-17--15--------------19--17--15----------|
D:-----------------------------------------|
A:-----------------------------------------|
E:-----------------------------------------|


   During Drums solo...
e:-----------------------------------|-------------|-------------|
B:-----------------------------------|Repeat-Bridge|Repeat-Chorus|
G:-----------------------------------|-------------|-------------|
D:----5-----7-----5-----3-----2--6--7|-------------|-------------|
A:-5--3--7--5--5--3--3--1--3--0--4--5|-------------|-------------|
E:-3-----5-----3-----1-----1---------|-------------|-------------|


   Last part
e:----------------------------------------|
B:----------------------------------------|
G:----------------------------------------|
D:-3--5--7------------3--5--3--------3---5|
A:-1--3--5--55555555--1--3--1----3---1---3|
E:-------------------------------1--------|
           (_________)


  Last solo(2nd guitar plays chorus)
e:------------------------------------------------------------------------|
B:-10~--11--10--11b(13)-------------------------------11--10--------------|
G:---------------------10~--12--10--12b(14)~------------------12~--10--10~|
D:--------------------------------------------10--12----------------------|
A:------------------------------------------------------------------------|
E:------------------------------------------------------------------------|

      
e:----|
B:End.|
G:----|
D:----|
A:----|
E:----|

Tabbed by Niuton
  development and support by
dmitry ivanov