rock
 
|tablatures   |lyrics   |discussion forums   |more tabs @ XGuitar.com

Helloween tabs

Eagle Fly Free bass tab

Eagle Fly Free by Helloween
-Bass Tab-

From album "Keeper Of The Seven Keys Part II"
Transcribed by André Baida from Brazil.
Bass Solo transcribed by Vinicius Neves From Brazil.
CounterParts HomePage: http://www.geocities.com/SunsetStrip/Lounge/5575
E-Mail: andrecp@bestway.com.br



Tune: E A D G

	Intro                             
G-----------------|-----------------|-----------------|------------|---
D-----------------|-----------------|-----------------|------------|---
A-----------------|-----------------|---------------5-|-5-5--------|---
E---------------0-|-0-------------0-|-0---------------|----------0-|---

G-----------------|-----------------|-----------------|--------------------|---
D-----------------|-----------------|-----------------|-------1-2-2-2-2/14-|---
A-----------5--2--|-----------------|---------------2-|-3---2--------------|---
E-0---------------|-0-0-0-0-0-0-0-0-|-0-0-0-0-0-0-3---|---3----------------|---

	Enter Vocals

G-------------------------|-------------------------|-------------------------|---
D-------------------------|-------------------------|-------------------------|---
A-5-5-5-5-5-5-5-5-5-5-5-5-|-5-5-5-5-5-5-5-5-5-5-5-5-|-3-3-3-3-3-3-3-3-3-3-3-3-|---
E-------------------------|-------------------------|-------------------------|---

G-------------------------|-------------------------|-------------------------|---
D-------------2-2-2-2-2-2-|-------------------------|-------------------------|---
A-3-3-3-3-3-3-------------|-5-5-5-5-5-5-5-5-5-5-5-5-|-5-5-5-5-5-5-5-5-5-5-5-5-|---
E-------------------------|-------------------------|-------------------------|---

G-------------------------|-------------------------|-----------------|---------------|---
D-------------------------|-------------------------|---------3-2-0---|---------3-2---|---
A-1-1-1-1-1-1-------------|-0-0-0-0-0-0-4-4-4-4-4-4-|-5-0-3-0-------3-|-5-0-3-0-----3-|---
E-------------1-1-1-1-1-1-|-------------------------|-----------------|---------------|---


G-------------------------|-------------------------|-------------------------|---
D-------------------------|-------------------------|-------------------------|---
A-5-5-5-5-5-5-5-5-5-5-5-5-|-5-5-5-5-5-5-5-5-5-5-5-5-|-3-3-3-3-3-3-3-3-3-3-3-3-|---
E-------------------------|-------------------------|-------------------------|---

G-------------------------|-------------------------|-------------------------|---
D-------------2-2-2-2-2-2-|-------------------------|-------------------------|---
A-3-3-3-3-3-3-------------|-5-5-5-5-5-5-5-5-5-5-5-5-|-5-5-5-5-5-5-5-5-5-5-5-5-|---
E-------------------------|-------------------------|-------------------------|---

G-------------------------|-------------------------|-----------------|------------------|-
D-------------------------|-------------------------|---------3-2-0---|-0----------------|-
A-1-1-1-1-1-1-------------|-0-0-0-0-0-0-4-4-4-4-4-4-|-5-0-3-0-------3-|---3-1-0----------|-
E-------------1-1-1-1-1-1-|-------------------------|-----------------|----------3-1-0-1-|-

	Bridge.

G----14-12----------------|----14-12----------------|----12-------------------|---
D-12-------14-15-12-14----|-12-------14----15-14-12-|-------15-14-15-12-14----|---
A----------------------15-|-------------13----------|-15-------------------15-|---
E-------------------------|-------------------------|-------------------------|---

G----12-------------------|----14-12----------------|----14-12----------------|---
D-------15-14-12-14-15-14-|-12-------14-15-12-14----|-12-------14----15-14-12-|---
A-15----------------------|----------------------15-|-------------13----------|---
E-------------------------|-------------------------|-------------------------|---

G--------------|-------------------------|----------------------------12-|---
D----------11--|-12----------15-14-12----|-------------12-14-15-14-15----|---
A-13----12-----|----12-15-12----------15-|----12-13-15-------------------|---
E----13--------|-------------------------|-15----------------------------|---

	Chorus.

	Eagle.....
G-------------------------|-------------------------|-------------------------|---
D-------------------------|-------------------------|-------------------------|---
A-------------------------|-3-3-3-3-3-3-4-4-4-4-4-4-|-5-5-5-5-5-5-5-5-5-5-5-5-|---
E-1-1-1-1-1-1-1-1-1-1-1-1-|-------------------------|-------------------------|---

G-------------------------|-------------------------|-------------------------|---
D-------------------------|-------------------------|-------------------------|---
A-------------------------|-1-1-1-1-1-1-1-1-1-1-1-1-|-------------------------|---
E-5-5-5-5-5-5-0-0-0-0-0-0-|-------------------------|-1-1-1-1-1-1-1-1-1-1-1-1-|---

G-------------------------|-------------------------|---
D-------------------------|-2-2-2-2-2-2-5-5-5-5-5-5-|---
A-3-3-3-3-3-3-5-5-5-5-5-5-|-------------------------|---
E-------------------------|-------------------------|---

	Leave time behind.......
G-------------------------|-------------------------|-------------------------|---
D-------------------------|-------------------------|-------------------------|---
A-------------------------|-3-3-3-3-3-3-4-4-4-4-4-4-|-5-5-5-5-5-5-5-5-5-5-5-5-|---
E-1-1-1-1-1-1-1-1-1-1-1-1-|-------------------------|-------------------------|---

G-------------------------|-------------------------|-------------------------|---
D-------------------------|-------------------------|-------------------------|---
A-------------------------|-1-1-1-1-1-1-1-1-1-1-1-1-|-3-3-3-3-3-3-3-3-3-3-3-3-|---
E-5-5-5-5-5-5-0-0-0-0-0-0-|-------------------------|-------------------------|---

G-------------------------|-------------------------|---
D-------------------------|-------------------------|---
A-------------------------|-------------------------|---
E-1-1-1-1-1-1-1-1-1-1-1-1-|-1-3-1-3--3-5-3-5--------|---

	Repeat vocals, bridge and chorus.

	Solo 1.

G-----------------------|----12-14-12h14-12-----|----------------------|---
D-12-14-15-14h15-14-----|-15----------------14--|-------12----12-------|---
A-------------------15--|-----------------------|-13-15----15----15-13-|---
E-----------------------|-----------------------|----------------------|---

G-------14--|-----------12-12--|---
D----14-----|------------------|---
A-12--------|--15-15-15--------|---
E-----------|------------------|---

	Guitar Duet.

G-------------------------|-------------------------|-------------------------|---
D-2-2-2-2-2-2-2-2-2-2-2-2-|-----------------5---5---|-2-2-2-2-2-2-2-2-2-2-2-2-|---
A-------------------------|-5-5-5-5-5-5-5-5---5---5-|-------------------------|---
E-------------------------|-------------------------|-------------------------|---

G---------------------------------|---
D---------------------5-5-4-4-4-4-|---
A-3-3-3-3-3-3-3-3-5-5-------------|---
E---------------------------------|---

	Markus solo. 


Parenthesis notes = Chord
Rest of notes = Notes played with right hand. 


G--(12)--16----16----16----16----16----16----16----16-----|
D--(14)-----17----17----17----17----17----17----17----17--|
A---------------------------------------------------------|
E---------------------------------------------------------|

G--(11)--14--16--14-----14--16--14----14--16--14----14--16--14-----|
D--(12)-------------14-------------14------------14------------14--|
A------------------------------------------------------------------|
E------------------------------------------------------------------|

G--(12)--16----16----16----16----16----16----16----16-----|
D--(14)-----17----17----17----17----17----17----17----17--|
A---------------------------------------------------------|
E---------------------------------------------------------|

G--(11)--14--16--14-----14--16--14----(9)---12----12-----(11)--14----14-----|
D--(12)-------------14-------------14-(10)-----12----12--(12)-----14----14--|
A---------------------------------------------------------------------------|
E---------------------------------------------------------------------------|

End of Bass Solo.

G---------0-2-4-2--|-0-2-0---0------|---
D-2-0-2-4----------|-------4---4-0--|---
A------------------|----------------|---
E------------------|----------------|---

	Repeat Solo 1.

	Ingo Solo.

G-----|----|----|----|----|----|--------|---------|-----7---10-9-7----|-7-----------------|
D-----|----|----|----|----|----|--------|---------|---7---7--------10-|---10-8-7----------|
A--5--|----|-3--|----|-5--|----|-3------|-1---0-4-|-5-----------------|----------10-8-7-8-|
E-----|-3--|----|-5--|----|-3--|-----1--|---1-----|-------------------|-------------------|

	Repeat Bridge and Chorus.

......Together we'll fly someday

G-------------------------|-------------------------|-------------------------|---
D-------------------------|-------------------------|-------------------------|---
A-1-1-1-1-1-1-1-1-1-1-1-1-|-3-3-3-3-3-3-3-3-3-3-3-3-|-5-5-5-5-5-5-5-5-5-5-5-5-|---
E-------------------------|-------------------------|-------------------------|---

	Together we'll fly Forever we'll fly Together we'll fly

G-------------------------|-------------------------|-------------------------|---
D-------------------------|-------------------------|-------------------------|---
A-1-1-1-1-1-1-1-1-1-1-1-1-|-3-3-3-3-3-3-3-3-3-3-3-3-|-5-5-5-5-5-5-5-5-5-5-5-5-|---
E-------------------------|-------------------------|-------------------------|---

					 Someday
G-------------------------|---
D-------------------------|---
A-------------------------|---
E-3-3-3-3-3-3-3-3-3-3-3-3-|---


	Repeat Chorus.
	
End.
  development and support by
dmitry ivanov