rock
 
|tablatures   |lyrics   |discussion forums   |more tabs @ XGuitar.com

Helloween tabs

Before The War bass tab

G||------------------|------------------|------------------|------------------|
D||------------------|------------------|------------------|------------------|
A||------------------|------------------|------------------|------------------|
E||------------------|------------------|------------------|------------------|


------------------|------------------|--------------------------|
------------------|------------------|--------------------------|
------------------|------------------|--5--5--5--5--5--5--5--5--|
------------------|------------------|--------------------------|



--------------------------|--------------------------|
--------------------------|--------------------------|
--5--5--5--5--5--5--5--5--|--5--5--5--5--5--5--5--5--|
--------------------------|--------------------------|



--------------------------|--------------------------|
--------------------------|--------------------------|
--5--5--5--5--5--5--5--5--|--------------------------|
--------------------------|--6--6--6--6--6--6--6--6--|



--------------------------|--------------------------|--------------------|
--------------------------|--------------------------|--------------------|
--------------------------|--------------------------|-------8------------|
--6--6--6--6--6--6--6--6--|--8--8--8--8--8--8--8--8--|--8-----------------|



--------------------------|--------------------------|
--------------------------|--------------------------|
--5--5--5--5--5--5--5--5--|--5--5--5--5--5--5--5--5--|
--------------------------|--------------------------|



--------------------------|--------------------------|
--------------------------|--------------------------|
--5--5--5--5--5--5--5--5--|--5--5--5--5--5--5--5--5--|
--------------------------|--------------------------|



--------------------------|--------------------------|
--------------------------|--------------------------|
--------------------------|--------------------------|
--6--6--6--6--6--6--6--6--|--6--6--6--6--6--6--6--6--|



--------------------------|--------------------|----------------------|
--------------------------|--------------------|--9----9----9----9----|
--------------------------|-------8------------|----------------------|
--8--8--8--8--8--8--8--8--|--8-----------------|----------------------|



----------------------|----------------------|-----------------------|
--9----9----9----9----|--9---------9---------|--9---------7----10----|
----------------------|-------9---------9----|-------9---------------|
----------------------|----------------------|-----------------------|



--7----------------------|--------------------------|-------7----5---------|
-------------------------|--------------------------|-----------------7----|
-------5--5--5--5--5--5--|--5--5--5--5--5--5--5--5--|--5-------------------|
-------------------------|--------------------------|----------------------|



---------------------|--------------------------|--------------------------|
--6----5-------------|--------------------------|--------------------------|
------------8--------|--------------------------|--------------------------|
---------------------|--6--6--6--6--6--6--6--6--|--6--6--6--6--6--6--6--6--|



--------------------------|--------------------------|----------------------|
--------------------------|--------------------------|----------------------|
--------------------------|--------------------------|----------------------|
--6--6--6--6--6--6--6--6--|--6--6--6--6--6--6--6--6--|--3----3----3----3----|



----------------------|--------------------------|--------------------------|
----------------------|--------------------------|--------------------------|
-----------------3----|--5--5--5--5--5--5--5--5--|--5--5--5--5--5--5--5--5--|
--3----3----3---------|--------------------------|--------------------------|



--------------------------|--------------------------|
--------------------------|--------------------------|
--------------------------|--------------------------|
--5--5--5--5--5--5--5--5--|--5--5--5--5--5--5--5--5--|



--------------------------|--------------------------|
--------------------------|--------------------------|
--------------------------|--------------------------|
--6--6--6--6--6--6--6--6--|--8--8--8--8--8--8--8--8--|



--------------------------|--------------------------|
--------------------------|--------------------------|
--5--5--5--5--5--5--5--5--|--5--5--5--5--5--5--5--5--|
--------------------------|--------------------------|



--------------------------|--------------------------|-----------------------|
--------------------------|--------------------------|-----------------------|
--------------------------|--------------------------|-----------------------|
--6--6--6--6--6--6--6--6--|--6--6--6--6--6--6--6--6--|--5--5--5--5--5--------|



-------------------|------------------|--------------------------|
-------------------|------------------|--------------------------|
-------------------|------------------|--5--5--5--5--5--5--5--5--|
--3----------------|------------------|--------------------------|



--------------------------|--------------------------|
--------------------------|--------------------------|
--5--5--5--5--5--5--5--5--|--------------------------|
--------------------------|--5--5--5--5--5--5--5--5--|



--------------------------|--------------------------|
--------------------------|--------------------------|
--------------------------|--------------------------|
--5--5--5--5--5--5--5--5--|--6--6--6--6--6--6--6--6--|



--------------------------|--------------------------|
--------------------------|--------------------------|
--------------------------|--5--5--5--5--5--5--5--5--|
--8--8--8--8--8--8--8--8--|--------------------------|



--------------------------|--------------------------|
--------------------------|--------------------------|
--5--5--5--5--5--5--5--5--|--------------------------|
--------------------------|--6--6--6--6--6--6--6--6--|



--------------------------|-----------------------|-------------------|
--------------------------|-----------------------|-------------------|
--------------------------|-----------------------|-------------------|
--6--6--6--6--6--6--6--6--|--5--5--5--5--5--------|--3----------------|



------------------|--------------------------|--------------------------|
------------------|--------------------------|--------------------------|
------------------|--5--5--5--5--5--5--5--5--|--5--5--5--5--5--5--5--5--|
------------------|--------------------------|--------------------------|



--------------------------|--------------------------|
--------------------------|--------------------------|
--5--5--5--5--5--5--5--5--|--5--5--5--5--5--5--5--5--|
--------------------------|--------------------------|



--------------------------|--------------------------|
--------------------------|--------------------------|
--------------------------|--------------------------|
--6--6--6--6--6--6--6--6--|--6--6--6--6--6--6--6--6--|



--------------------------|--------------------|--------------------------|
--------------------------|--------------------|--------------------------|
--------------------------|-------8------------|--5--5--5--5--5--5--5--5--|
--8--8--8--8--8--8--8--8--|--8-----------------|--------------------------|



--------------------------|--------------------------|
--------------------------|--------------------------|
--5--5--5--5--5--5--5--5--|--5--5--5--5--5--5--5--5--|
--------------------------|--------------------------|



--------------------------|--------------------------|
--------------------------|--------------------------|
--5--5--5--5--5--5--5--5--|--------------------------|
--------------------------|--6--6--6--6--6--6--6--6--|



--------------------------|--------------------------|--------------------|
--------------------------|--------------------------|--------------------|
--------------------------|--------------------------|-------8------------|
--6--6--6--6--6--6--6--6--|--8--8--8--8--8--8--8--8--|--8-----------------|



----------------------|----------------------|----------------------|
--9----9----9----9----|--9----9----9----9----|--9---------9---------|
----------------------|----------------------|-------9---------9----|
----------------------|----------------------|----------------------|



-----------------5----|--7----------------------|--------------------------|
--9---------7---------|-------------------------|--------------------------|
-------9--------------|-------5--5--5--5--5--5--|--5--5--5--5--5--5--5--5--|
----------------------|-------------------------|--------------------------|



----------------------|------------5----7----|--------------------------|
----------------------|--5----7--------------|--------------------------|
--5----5----5---------|----------------------|--------------------------|
-----------------5----|----------------------|--6--6--6--6--6--6--6--6--|



--------------------------|--------------------------|
--------------------------|--------------------------|
--------------------------|--------------------------|
--6--6--6--6--6--6--6--6--|--6--6--6--6--6--6--6--6--|



--------------------------|----------------------|----------------------|
--------------------------|----------------------|----------------------|
--------------------------|----------------------|-----------------3----|
--6--6--6--6--6--6--6--6--|--3----3----3----3----|--3----3----3---------|



--------------------------|--------------------------|
--------------------------|--------------------------|
--5--5--5--5--5--5--5--5--|--5--5--5--5--5--5--5--5--|
--------------------------|--------------------------|



--------------------------|--------------------------|
--------------------------|--------------------------|
--------------------------|--------------------------|
--5--5--5--5--5--5--5--5--|--5--5--5--5--5--5--5--5--|



--------------------------|--------------------------|
--------------------------|--------------------------|
--------------------------|--------------------------|
--6--6--6--6--6--6--6--6--|--8--8--8--8--8--8--8--8--|



--------------------------|--------------------------|
--------------------------|--------------------------|
--5--5--5--5--5--5--5--5--|--5--5--5--5--5--5--5--5--|
--------------------------|--------------------------|



--------------------------|--------------------------|-----------------------|
--------------------------|--------------------------|-----------------------|
--------------------------|--------------------------|-----------------------|
--6--6--6--6--6--6--6--6--|--6--6--6--6--6--6--6--6--|--5--5--5--5--5--------|



-------------------|------------------|--------------------------|
-------------------|------------------|--------------------------|
-------------------|------------------|--5--5--5--5--5--5--5--5--|
--3----------------|------------------|--------------------------|



--------------------------|--------------------------|
--------------------------|--------------------------|
--5--5--5--5--5--5--5--5--|--------------------------|
--------------------------|--5--5--5--5--5--5--5--5--|



--------------------------|--------------------------|
--------------------------|--------------------------|
--------------------------|--------------------------|
--5--5--5--5--5--5--5--5--|--6--6--6--6--6--6--6--6--|



--------------------------|--------------------------|
--------------------------|--------------------------|
--------------------------|--5--5--5--5--5--5--5--5--|
--8--8--8--8--8--8--8--8--|--------------------------|



--------------------------|--------------------------|
--------------------------|--------------------------|
--5--5--5--5--5--5--5--5--|--------------------------|
--------------------------|--6--6--6--6--6--6--6--6--|



--------------------------|-----------------------|-------------------|
--------------------------|-----------------------|-------------------|
--------------------------|-----------------------|-------------------|
--6--6--6--6--6--6--6--6--|--5--5--5--5--5--------|--3----------------|



-----------|----------------------|-----------------------|
-----------|----------------------|-----------------------|
-----------|----------------------|-----------------------|
--2--------|--2--2--2------0------|--2--2--2--2--2--------|



----------------------|-----------------------|----------------------|
----------------------|-----------------------|----------------------|
----------------------|-----------------------|----------------------|
--2--2--3------5------|--2--2--2--2--2--------|--2--2--2------0------|



-------------------|---------------------|-----------------------|
-------------------|---------------------|-----------------------|
--0----------------|--2------3------4----|-----------------------|
-------------------|---------------------|--2--2--2--2--2--------|



----------------------|-----------------------|----------------------|
----------------------|-----------------------|----------------------|
----------------------|-----------------------|----------------------|
--2--2--2------0------|--2--2--2--2--2--------|--2--2--3------5------|



-----------------------|----------------------|-------------------|
-----------------------|----------------------|-------------------|
-----------------------|----------------------|--0----------------|
--2--2--2--2--2--------|--2--2--2------0------|-------------------|



---------------------|---------------------|--4------5------6----|
---------------------|--2------3------4----|---------------------|
--2------3------4----|---------------------|---------------------|
---------------------|---------------------|---------------------|



---------------------|--------------------------|--------------------------|
--7------------------|--------------------------|--------------------------|
---------9------7----|--2--2--2--2--2--2--2--2--|--2--2--2--2--2--2--2--2--|
---------------------|--------------------------|--------------------------|



--------------------------|--------------------------|
--------------------------|--------------------------|
--------------------------|--0--0--0--0--0--0--0--0--|
--3--3--3--3--3--3--3--3--|--------------------------|



--------------------------|--------------------------|
--------------------------|--------------------------|
--2--2--2--2--2--2--2--2--|--2--2--2--2--2--2--2--2--|
--------------------------|--------------------------|



--------------------------|--------------------------|
--------------------------|--------------------------|
--------------------------|--0--0--0--0--0--0--0--0--|
--3--3--3--3--3--3--3--3--|--------------------------|



--------------------------|--------------------------|
--------------------------|--------------------------|
--2--2--2--2--2--2--2--2--|--2--2--2--2--2--2--2--2--|
--------------------------|--------------------------|



--------------------------|--------------------------|
--------------------------|--------------------------|
--------------------------|--------------------------|
--3--3--3--3--3--3--3--3--|--3--3--3--3--2--2--2--2--|



--------------------------|--------------------------|---------------------|
--------------------------|--------------------------|---------------------|
--7--7--7--7--7--7--7--7--|--7--7--7--7--7--7--7--7--|---------------------|
--------------------------|--------------------------|--7------5------7----|



---------------------|--------------------------|--------------------------|
---------------------|--------------------------|--------------------------|
---------------------|--------------------------|--------------------------|
------5----7----5----|--7--7--7--7--7--7--7--7--|--7--7--7--7--7--7--7--7--|



--------------------------|--------------------------|
--------------------------|--------------------------|
--------------------------|--------------------------|
--3--3--3--3--3--3--3--3--|--5--5--5--5--5--5--5--5--|



--------------------------|--------------------------|
--------------------------|--------------------------|
--------------------------|--------------------------|
--7--7--7--7--7--7--7--7--|--7--7--7--7--7--7--7--7--|



--------------------------|--------------------------|
--------------------------|--------------------------|
--------------------------|--------------------------|
--3--3--3--3--3--3--3--3--|--5--5--5--5--5--5--5--5--|



--------------------------|--------------------------|
--------------------------|--------------------------|
--------------------------|--------------------------|
--7--7--7--7--7--7--7--7--|--7--7--7--7--7--7--7--7--|



--------------------------|--------------------------|
--------------------------|--------------------------|
--------------------------|--------------------------|
--3--3--3--3--3--3--3--3--|--3--3--3--3--2--2--2--2--|



--------------------------|--------------------------|----------------------|
--------------------------|--------------------------|--9----7----8---------|
--7--7--7--7--7--7--7--7--|--7--7--7--7--7--7--7--7--|-----------------9----|
--------------------------|--------------------------|----------------------|



----------------------|----------------------|----------------------|
--7-------------------|----------------------|----------------------|
-------7----9----5----|--7----4----5----2----|--4----0----2---------|
----------------------|----------------------|-----------------2----|



--------------------------|--------------------------|
--------------------------|--------------------------|
--0--0--0--0--0--0--0--0--|--0--0--0--0--0--0--0--0--|
--------------------------|--------------------------|



--------------------------|--------------------------|
--------------------------|--------------------------|
--0--0--0--0--0--0--0--0--|--0--0--0--0--0--0--0--0--|
--------------------------|--------------------------|



--------------------------|--------------------------|
--------------------------|--------------------------|
--0--0--0--0--0--0--0--0--|--0--0--0--0--0--0--0--0--|
--------------------------|--------------------------|



--------------------------|--------------------------|
--------------------------|--------------------------|
--7--7--7--7--7--7--7--7--|--7--7--7--7--7--7--7--7--|
--------------------------|--------------------------|



--------------------------|--------------------------|
--------------------------|--------------------------|
--8--8--8--8--8--8--8--8--|--8--8--8--8--8--8--8--8--|
--------------------------|--------------------------|



--------------------------|--------------------------|
--5--5--5--5--5--5--5--5--|--------------------------|
--------------------------|--------------------------|
--------------------------|--4--4--4--4--4--4--4--4--|



--------------------------|--------------------------|
--------------------------|--------------------------|
--------------------------|--------------------------|
--5--5--5--5--5--5--5--5--|--5--5--5--5--5--5--5--5--|



--------------------------|--------------------------|
--------------------------|--------------------------|
--5--5--5--5--5--5--5--5--|--5--5--5--5--5--5--5--5--|
--------------------------|--------------------------|



--------------------------|--------------------------|
--------------------------|--------------------------|
--3--3--3--3--3--3--3--3--|--3--3--3--3--3--3--3--3--|
--------------------------|--------------------------|



--------------------------|--------------------------|
--------------------------|--------------------------|
--2--2--2--2--2--2--2--2--|--------------------------|
--------------------------|--3--3--3--3--3--3--3--3--|



--------------------------|--------------------------|
--------------------------|--------------------------|
--0--0--0--0--0--0--0--0--|--0--0--0--0--0--0--0--0--|
--------------------------|--------------------------|



--------------------------|--------------------------|
--------------------------|--------------------------|
--7--7--7--7--7--7--7--7--|--7--7--7--7--7--7--7--7--|
--------------------------|--------------------------|



--------------------------|--------------------------|
--------------------------|--------------------------|
--8--8--8--8--8--8--8--8--|--8--8--8--8--8--8--8--8--|
--------------------------|--------------------------|



--------------------------|--------------------------|
--------------------------|--------------------------|
--------------------------|--------------------------|
--3--3--3--3--3--3--3--3--|--4--4--4--4--4--4--4--4--|



--------------------------|--------------------------|
--------------------------|--------------------------|
--------------------------|--------------------------|
--5--5--5--5--5--5--5--5--|--5--5--5--5--5--5--5--5--|



--------------------------|--------------------------|
--------------------------|--------------------------|
--5--5--5--5--5--5--5--5--|--5--5--5--5--5--5--5--5--|
--------------------------|--------------------------|



--------------------------|--------------------------|
--------------------------|--------------------------|
--3--3--3--3--3--3--3--3--|--3--3--3--3--3--3--3--3--|
--------------------------|--------------------------|



--------------------------|--------------------------|
--------------------------|--------------------------|
--2--2--2--2--2--2--2--2--|--------------------------|
--------------------------|--3--3--3--3--3--3--3--3--|



--------------------------|-------------------------------|
--------------------------|-------------------------------|
--7--7--7--7--7--7--7--7--|--10--10--10--9--9--9--10--10--|
--------------------------|-------------------------------|



--------------------------|-------------------------------|
--------------------------|-------------------------------|
--7--7--7--7--7--7--7--7--|--10--10--10--9--9--9--10--10--|
--------------------------|-------------------------------|



--------------------------|--------------------------|
--------------------------|--5--5--5--5--5--5--------|
--3--3--3--3--3--3--3--3--|--------------------3--3--|
--------------------------|--------------------------|



--------------------------|--------------------------|
--------------------------|--------------------------|
--2--2--2--2--2--2--2--2--|--3--3--3--4--4--4--5--5--|
--------------------------|--------------------------|



--------------------------|-------------------------------|
--------------------------|-------------------------------|
--7--7--7--7--7--7--7--7--|--10--10--10--9--9--9--10--10--|
--------------------------|-------------------------------|



--------------------------|-------------------------------|
--------------------------|-------------------------------|
--7--7--7--7--7--7--7--7--|--10--10--10--9--9--9--10--10--|
--------------------------|-------------------------------|



----------------------------------|-------------------------------|
--10--10--10--10--10--10--10--10--|-------------------------------|
----------------------------------|--10--10--10--9--9--9--10--10--|
----------------------------------|-------------------------------|



--------------------------|--------------------------|
--------------------------|--------------------------|
--------------------------|--7--7--7--5--5--5--------|
--7--7--7--7--7--7--7--7--|--------------------7--7--|



--------------------------|-------------------------------|
--------------------------|-------------------------------|
--7--7--7--7--7--7--7--7--|--10--10--10--9--9--9--10--10--|
--------------------------|-------------------------------|



--------------------------|-------------------------------|
--------------------------|-------------------------------|
--7--7--7--7--7--7--7--7--|--10--10--10--9--9--9--10--10--|
--------------------------|-------------------------------|



----------------------------------|-------------------------------|
--10--10--10--10--10--10--10--10--|-------------------------------|
----------------------------------|--10--10--10--7--7--7----------|
----------------------------------|-----------------------10--10--|



--------------------------|-----------------------|-----------------------|
--------------------------|-----------------------|-----------------------|
--------------------------|-----------5------7----|-----------------------|
--7--7--7--7--7--7--7--7--|--8--8--8--------------|--8----8--8--8----8----|



-----------------------|-----------------------|------------------7----|
-----------------------|--10-------------------|--------7----9---------|
-----------------------|------------10----7----|--10-------------------|
--8----8--8--8----8----|-----------------------|-----------------------|



-----------------------|-----------------------|-------9----7---------|
-----------------------|-----------------------|-----------------9----|
--7----7--7--7----7----|--7----7--7--7----7----|--7-------------------|
-----------------------|-----------------------|----------------------|



----------------------|-------------------------|--------------------------|
--8----7----5---------|-------------------------|--------------------------|
-----------------7----|--3----3--3--3--3--3--3--|--3--3--3--3--3--3--3--3--|
----------------------|-------------------------|--------------------------|



-------------------------|--------------------------|--------------------------|
-------------------------|--------------------------|--------------------------|
--3----3--3--3--3--3--3--|--3--3--3--3--3--3--3--3--|--3--3--3--3--3--3--3--3--|
-------------------------|--------------------------|--------------------------|



--------------------------|--------------------------|----------------------|
--------------------------|--------------------------|-------------7--------|
--5--5--5--5--5--5--5--5--|--7--7--7--7--7--7--7--7--|--9----10-------------|
--------------------------|--------------------------|----------------------|



---------------------|--------------------------|----------------------|
---------------------|--------------------------|--------1------3------|
--3--3--3------------|--3--3--3--3--3--3--3--3--|--3--3----------------|
---------------------|--------------------------|----------------------|



---------------------|---------------------|--------------------------|
--1------0-----------|---------------------|--------------------------|
----------------1----|--3--3--3------------|--3--3--3--3--3--3--3--3--|
---------------------|---------------------|--------------------------|



----------------------|---------------------|--------------------------|
--------1------3------|--1------0-----------|--------------------------|
--3--3----------------|----------------1----|--------------------------|
----------------------|---------------------|--4--4--4--4--4--4--4--4--|



--------------------------|-------------------|------------------|
--------------------------|-------------------|------------------|
--------------------------|-------------------|------------------|
--4--4--4--4--4--4--4--4--|--1----------------|------------------|



-------------------|------------------|--------------------------|
-------------------|------------------|--------------------------|
-------------------|------------------|--5--5--5--5--5--5--5--5--|
--3----------------|------------------|--------------------------|



--------------------------|--------------------------|
--------------------------|--------------------------|
--5--5--5--5--5--5--5--5--|--------------------------|
--------------------------|--5--5--5--5--5--5--5--5--|



--------------------------|--------------------------|
--------------------------|--------------------------|
--------------------------|--------------------------|
--5--5--5--5--5--5--5--5--|--6--6--6--6--6--6--6--6--|



--------------------------|--------------------------|
--------------------------|--------------------------|
--------------------------|--5--5--5--5--5--5--5--5--|
--8--8--8--8--8--8--8--8--|--------------------------|



--------------------------|--------------------------|
--------------------------|--------------------------|
--5--5--5--5--5--5--5--5--|--------------------------|
--------------------------|--6--6--6--6--6--6--6--6--|



--------------------------|-----------------------|-------------------|
--------------------------|-----------------------|-------------------|
--------------------------|-----------------------|-------------------|
--6--6--6--6--6--6--6--6--|--5--5--5--5--5--------|--3----------------|



------------------|--------------------------|--------------------------|
------------------|--------------------------|--------------------------|
------------------|--5--5--5--5--5--5--5--5--|--5--5--5--5--5--5--5--5--|
------------------|--------------------------|--------------------------|



--------------------------|--------------------------|
--------------------------|--------------------------|
--------------------------|--------------------------|
--5--5--5--5--5--5--5--5--|--5--5--5--5--5--5--5--5--|



--------------------------|--------------------------|
--------------------------|--------------------------|
--------------------------|--------------------------|
--6--6--6--6--6--6--6--6--|--8--8--8--8--8--8--8--8--|



--------------------------|--------------------------|
--------------------------|--------------------------|
--5--5--5--5--5--5--5--5--|--5--5--5--5--5--5--5--5--|
--------------------------|--------------------------|



--------------------------|--------------------------|
--------------------------|--------------------------|
--------------------------|--------------------------|
--6--6--6--6--6--6--6--6--|--6--6--6--6--6--6--6--6--|



--------------------------|--------------------------|
--------------------------|--------------------------|
--------------------------|--------------------------|
--8--8--8--8--8--8--8--8--|--8--8--8--8--8--8--8--8--|



--------------------------|--------------------------|-------------------------|
--------------------------|--------------------------|--------------5--5--7----|
--------------------------|--------------------------|--5--5--8--8-------------|
--6--6--6--6--6--6--6--6--|--6--6--6--6--6--6--6--6--|-------------------------|



--7-------------------|-------------------|--------------------|
-------5----7----5----|-------------------|--------------------|
----------------------|--1----------------|--3--------1--------|
----------------------|-------------------|--------------------|



--------------------------|--------------------------|
--------------------------|--------------------------|
--0--0--0--0--0--0--0--0--|--0--0--0--0--0--0--0--0--|
--------------------------|--------------------------|



--------------------------|--------------------------|
--------------------------|--------------------------|
--0--0--0--0--0--0--0--0--|--0--0--0--0--0--0--0--0--|
--------------------------|--------------------------|



--------------------------|--------------------------|
--------------------------|--------------------------|
--0--0--0--0--0--0--0--0--|--0--0--0--0--0--0--0--0--|
--------------------------|--------------------------|



--------------------------|---------------------|-----------------------||
--------------------------|---------------------|-----------------------||
--0--0--0--0--0--0--0--0--|--0------------------|--5--5--5--5--5--------||
--------------------------|---------3------1----|-----------------------||
  development and support by
dmitry ivanov