rock
 
|tablatures   |lyrics   |discussion forums   |more tabs @ XGuitar.com

Helloween tabs

A Tale That Wasn't Right bass tab

G||------|------|------|------|------|------|------|------|------|------|------|
D||------|------|------|------|------|------|------|------|------|------|------|
A||------|------|------|------|------|------|------|------|------|------|------|
E||------|------|------|------|------|------|------|------|------|------|------|


-------------------|--------------------|-------------------|
--2----------------|--2----2------------|-------------------|
-------------------|--------------------|--2----------------|
-------------------|--------------------|-------------------|



--------------------|-------------------|--------------------|
--------------------|--2----------------|--2----2------------|
--2----2------------|-------------------|--------------------|
--------------------|-------------------|--------------------|



-------------------|--------------------|-------------------|
--3----------------|--3----3------------|--0----------------|
-------------------|--------------------|-------------------|
-------------------|--------------------|-------------------|



--------------------|-------------------|--------------------|
--0----0------------|--2----------------|--2----2------------|
--------------------|-------------------|--------------------|
--------------------|-------------------|--------------------|



-------------------|--------------------|-------------------|
-------------------|--------------------|--2----------------|
--2----------------|--2----2------------|-------------------|
-------------------|--------------------|-------------------|



-------------------|---------------------|--------------------|
--0----------------|------------2--------|----------2--2------|
-------------------|--3----5-------------|--------------------|
-------------------|---------------------|--------------------|



-------------------|--------------------|-------------------|
-------------------|--------------------|-------------------|
----------5--------|----------5--5------|----------3--------|
-------------------|--------------------|-------------------|



-------------------|-------------------|-------------------|
----------5--------|----------3--------|-------------------|
-------------------|-------------------|----------5--------|
-------------------|-------------------|-------------------|



---------------------|--------------------|-------------------|
------------2--------|----------2--2------|-------------------|
--3----5-------------|--------------------|----------5--------|
---------------------|--------------------|-------------------|



--------------------|-------------------|-------------------|
--------------------|----------5--------|-------------------|
----------5--5------|-------------------|----------2--------|
--------------------|-------------------|-------------------|



-------------------|------------------|-------------------|--------------------|
----------2--------|------------------|--2----------------|--2----2------------|
-------------------|------------------|-------------------|--------------------|
-------------------|------------------|-------------------|--------------------|



-------------------|--------------------|-------------------|
-------------------|--------------------|--2----------------|
--2----------------|--2----2------------|-------------------|
-------------------|--------------------|-------------------|



--------------------|-------------------|--------------------|
--2----2------------|--3----------------|--3----3------------|
--------------------|-------------------|--------------------|
--------------------|-------------------|--------------------|



-------------------|--------------------|-------------------|
--0----------------|--0----0------------|--2----------------|
-------------------|--------------------|-------------------|
-------------------|--------------------|-------------------|



--------------------|-------------------|--------------------|
--2----2------------|-------------------|--------------------|
--------------------|--2----------------|--2----2------------|
--------------------|-------------------|--------------------|



-------------------|-------------------|---------------------|
--2----------------|----------0--------|------------2--------|
-------------------|-------------------|--3----5-------------|
-------------------|-------------------|---------------------|



--------------------|-------------------|--------------------|
----------2--2------|-------------------|--------------------|
--------------------|----------5--------|----------5--5------|
--------------------|-------------------|--------------------|



-------------------|-------------------|-------------------|-------------------|
-------------------|----------5--------|----------3--------|-------------------|
----------3--------|-------------------|-------------------|----------5--------|
-------------------|-------------------|-------------------|-------------------|



---------------------|--------------------|-------------------|
------------2--------|----------2--2------|-------------------|
--3----5-------------|--------------------|----------5--------|
---------------------|--------------------|-------------------|



--------------------|-------------------|-------------------|
--------------------|----------5--------|-------------------|
----------5--5------|-------------------|----------2--------|
--------------------|-------------------|-------------------|



-------------------|------------------|------------------|-------------------|
----------2--------|------------------|------------------|--------------2----|
-------------------|------------------|------------------|-------------------|
-------------------|------------------|------------------|-------------------|



-------------------|--------------------|-------------------|
--------------2----|--2-----------------|-------------------|
-------------------|---------------2----|--------------2----|
-------------------|--------------------|-------------------|



--------------------|-------------------|--------------------|
---------------2----|--------------2----|--2------------3----|
--2-----------------|-------------------|--------------------|
--------------------|-------------------|--------------------|



-------------------|--------------------|-------------------|
--------------3----|--3------------0----|--------------0----|
-------------------|--------------------|-------------------|
-------------------|--------------------|-------------------|



--------------------|-------------------|--------------------|
--0------------2----|--------------2----|--2-----------------|
--------------------|-------------------|---------------2----|
--------------------|-------------------|--------------------|



------------------||----------------------|--------------------|
------------------||*------------2--------|----------2--2------|
------------------||*--3----5-------------|--------------------|
------------------||----------------------|--------------------|



-------------------|--------------------|-------------------|
-------------------|--------------------|-------------------|
----------5--------|----------5--5------|----------3--------|
-------------------|--------------------|-------------------|



-------------------|-------------------|-------------------|
----------5--------|----------3--------|-------------------|
-------------------|-------------------|----------5--------|
-------------------|-------------------|-------------------|



---------------------|--------------------|-------------------|
------------2--------|----------2--2------|-------------------|
--3----5-------------|--------------------|----------5--------|
---------------------|--------------------|-------------------|



--------------------|-------------------|-------------------|
--------------------|----------5--------|-------------------|
----------5--5------|-------------------|----------2--------|
--------------------|-------------------|-------------------|



-------------------|-------------------||---------------------|
----------2--------|------------------*||------------2--------|
-------------------|------------------*||--3----5-------------|
-------------------|-------------------||---------------------|



--------------------|-------------------|--------------------|
----------2--2------|-------------------|--------------------|
--------------------|----------5--------|----------5--5------|
--------------------|-------------------|--------------------|



-------------------|-------------------|-------------------|
-------------------|----------5--------|----------3--------|
----------3--------|-------------------|-------------------|
-------------------|-------------------|-------------------|



-------------------||
-------------------||
----------5--------||
-------------------||
  development and support by
dmitry ivanov