rock
 
|tablatures   |lyrics   |discussion forums   |more tabs @ XGuitar.com

Helloween tabs

A Million To One guitar tab

A MILLION TO ONE, From the Time of the oath album.

E |---------------|--------------|---------------|----------------------|
B |---------------|--------------|---------------|----------------------|
G |-7--7--7--5----|--------------|-7--7--7--5----|-5--5--5---------7----|
D |-7--7--7--5----|-3--3--3--5---|-7--7--7--5----|-5--5--5-7-7-7-7-7----|
A |-5--5--5--3----|-3--3--3--5---|-5--5--5--3----|-3--3--3-5-5-5-5-5----|
E |---------------|-1--1--1--3---|---------------|----------------------|
                                                           PM----/

Second & third times, add this guitar:
E |-----------------|--15-17-15-----------|-------------|15(*)-----------|
B |-15--15-17--15-17|18--------18-17-18-17|15--15-17--17|17----18-17-15--|
G |---14------------|--------------\/-\/--|--14-----17--|----------------|
D |-----------------|---------------H-P---|-------------|----------------|
A |-----------------|---------------------|-------------|----------------|
E |-----------------|---------------------|-------------|----------------|
  * Play the lower note the 2nd time and the upper note the 3rd time

Now the 1st guitar plays the heavy notes, while the 2nd one plays the
acoustic notes:
E|------------------------|--------------|-------------------------|-------|
B|-------6----------------|--------------|-------5-----------------|-------|
G|----7----7--------------|--------------|----7----7---------------|-------|
D|-7---------7------------|--------------|-7---------7-------------|-------|
A|-3-3---3-3---3-3---3-3--|------------2-|-5-5---5-5---5-5---5-5---|-----2-|
E|-1-1---1-1---1-1---1-1--|------------0-|-5-5---5-5---5-5---5-5---|-----0-|
    PM/   PM/   PM/   PM/                   PM/   PM/   PM/   PM/

   Go     -     ing        to somewhere unseen   and   unknown
E|------------------------|--------------|-------------------------|-------|
B|-------6----------------|--------------|-------5-----------------|-------|
G|----7----7--------------|--------------|----7----7---------------|-------|
D|-7---------7------------|--------------|-7---------7-------------|-------|
A|-3-3---3-3---3-3---3-3--|------------2-|-5-5---5-5---5-5---5-5---|-----2-|
E|-1-1---1-1---1-1---1-1--|------------0-|-5-5---5-5---5-5---5-5---|-----0-|
    PM/   PM/   PM/   PM/                   PM/   PM/   PM/   PM/

    Just        Like...
E|------------------------|------------------------|-----------------------|
B|-------6----------------|-------6----------------|-------5---------------|
G|----7----7--------------|----7----7--------------|----7----7-------------|
D|-7---------7------------|-7---------7------------|-7---------7-----------|
A|-3-3---3-3---3-3---3-3--|-3-3---3-3---3-3---3-3-2|-5-5---5-5---5-5---5-5-|
E|-1-1---1-1---1-1---1-1--|-1-1---1-1---1-1---1-1-0|-5-5---5-5---5-5---5-5-|
    PM/   PM/   PM/   PM/    PM/   PM/   PM/   PM/    PM/   PM/   PM/   PM/
                          H  P
E |----------------------/\-/\-------|
B |-------5--------15--13-15-13-11---|
G |----7----7------15--14-15-14-12-14|
D |-7---------7----------\/-\/-----15|
A |-5-5---5-5---5-5------H---P-------|
E |-5-5---5-5---5-5------------------|
    PM/   PM/   PM/         

   Take   me  a  -way  into your innocent   dreams         Maybe I'll
E |--------------|---------|--------------|---------------|-------------|
B |-------15--13-|-11------|--------------|---------------|------15--13-|
G |-------15--14-|-12------|-14---12------|-14----14--12--|------15--14-|
D |12------------|---------|-15---14------|-15----15--14--|-12----------|
A |--------------|---------|--------------|---------------|-------------|
E |--------------|---------|--------------|---------------|-------------|

   see    what it all means
E |--------------|--------------|------trill--trill-------|
B |-11-----------|-14----15-----|14---15-17---17-19---20--|
G |-12-----------|-14----15-----|14---12-14---10-12---9---|
D |--------------|--------------|------trill--trill-------|
A |--------------|--------------|-------------------------|
E |--------------|--------------|-------------------------|


CHORUS : 1st guitar play this :                                  2 times
E |---------------|--------------|---------------|----------------------|
B |---------------|--------------|---------------|----------------------|
G |-7--7--7--5----|--------------|-7--7--7--5----|-5--5--5---------7----|
D |-7--7--7--5----|-3--3--3--5---|-7--7--7--5----|-5--5--5-7-7-7-7-7----|
A |-5--5--5--3----|-3--3--3--5---|-5--5--5--3----|-3--3--3-5-5-5-5-5----|
E |---------------|-1--1--1--3---|---------------|----------------------|
  |                                                        PM----/
and second guitar play this :
E |-----------------|--15-17-15-----------|-------------|15(*)-----------|
B |-15--15-17--15-17|18--------18-17-18-17|15--15-17--17|17----18-17-15--|
G |---14------------|--------------\/-\/--|--14-----17--|----------------|
D |-----------------|---------------H-P---|-------------|----------------|
A |-----------------|---------------------|-------------|----------------|
E |-----------------|---------------------|-------------|----------------|
  * Play the lower note the 2nd time and the upper note the 3rd time

Play again the verse, the prechorus and now play the chorus as above and
add this guitar line the 2nd time :

E |-----------------|-----8---------------|-------------|----------------|
B |-6---6--8----6-8-|10-11-11-10---8-10-8-|-6---6--8--8-|-11---10-8-6----|
G |---7-------------|--------------\/-\/--|---7------9--|----------------|
D |-----------------|---------------H-P---|-------------|----------------|
A |-----------------|---------------------|-------------|----------------|
E |-----------------|---------------------|-------------|----------------|


E |--------------|---------|--------------|----------|------------------|
B |--------------|---------|--------------|----------|------------------|
G |-7-----7--9---|---------|-7-----7--5---|----------|-7-----7--9-------|
D |-7--7--7--9---|---------|-7--7--7--5---|----------|-7--7--7--9-------|
A |-5--7--5--7---|---------|-5--7--5--3---|----------|-5--7--5--7-------|
E |----5---------|---------|----5---------|----------|----5-------------|

E |---------------------------------------|
B |---------------------------------------|
G |-7-----7-------------------------------|
D |-7--7--7--------------------------5----|
A |-5--7--5--3-3-3-3-3-3-3-3-5-5-5-5-5----|
E |----5-----1-1-1-1-1-1-1-1-3-3-3-3-3----|
             PM----------------------/

E |-----------------|----------------|-----------------|-----------------|
B |-----------------|----------------|-----------------|-----------------|
G |o-10--10---10----|-12--12---12----|-5---5-----5-----|-7---7-----7-----|
D |o---0---0-0--0-0-|---0---0-0--0-0-|---0---0-0---0-0-|---0---0-0---0-0-|
A |-----------------|----------------|-----------------|-----------------|
E |-----------------|----------------|-----------------|-----------------|
    PM on D string through-out
                                                                  2 times
E |-----------------|----------------|-----------------------------------|
B |-----------------|----------------|-----------------------------------|
G |--10--10---10----|-12--12---12----|----------------------------------o|
D |----0---0-0--0-0-|---0---0-0--0-0-|------12------12------12-------12-o|
A |-----------------|----------------|-13-13---12-12---10-10-------------|
E |-----------------|----------------|-------------------------13-13-----|


The keyboard solo begins here       The guitar solo begins here
E |--------------------|---|---|---|---------------|---|----------|---|
B |--------------------|---|---|---|---------------|---|----------|---|
G |--------------------|---|---|---|---------------|---|----------|---|
D |--------------------|---|---|---|---------------|---|----------|---|
A |-2-2--2-2-2---------|---|---|---|-5-5-5-5-------|---|-2-2-2----|---|
E |-0-0--0-0-0--etc..--|...|...|...|-3-3-3-3-etc...|...|-0-0-0-etc|...|
    PM-------etc.                    PM----etc.          PM---etc

E |-----------------|----------------|-----------------|-----------------|
B |--10--10---10----|-11--11---11----|-5---5-----5-----|-6---6-----6-----|
G |--10--10---10----|-12--12---12----|-5---5-----5-----|-7---7-----7-----|
D |----0---0-0--0-0-|---0---0-0--0-0-|---0---0-0---0-0-|---0---0-0---0-0-|
A |-----------------|----------------|-----------------|-----------------|
E |-----------------|----------------|-----------------|-----------------|
    PM on D string through-out
    (*) The 1st guitar plays the upper notes while the 2nd one plays the
    lower notes.
                                                                  
E |-----------------|----------------|-----------------------------------|
B |--10--10---10----|-11--11---11----|-----------------------------------|
G |--10--10---10----|-12--12---12----|-----------------------------------|
D |----0---0-0--0-0-|---0---0-0--0-0-|------12------12------12-------12--|
A |-----------------|----------------|-13-13---12-12---10-10-------------|
E |-----------------|----------------|-------------------------13-13-----|


E |--------------------------------|---------------------------------|
B |--------------------------------|---------------------------------|
G |--------------------------------|------14------14------14------14-|
D |-----12------12------12------12-|------12------12------12------12-|
A |13-13---12-12---10-10-----------|-13-13---12-12---10-10-----------|
E |------------------------13-13---|-------------------------13-13---|
                                   (*) same as above 1st gtr-up  2nd
gtr-down

The bass solo starts here
E|---------|------|-------|--------|-------|-------|-------|---------|-----|
B|---------|------|-------|--------|-------|-------|-------|---------|-----|
G|---------|------|-3-----|-7---5--|-------|-------|-3-----|-7----5--|-----|
D|-0-----2-|-3----|-3-----|-7---5--|-0---2-|-3-----|-3-----|-7----5--|-0---|
A|-0-----2-|-3----|-1-----|-5---3--|-0---2-|-3-----|-1-----|-5----3--|-0---|
E|-------0-|-1----|-------|--------|-----0-|-1-----|-------|---------|-----|


E |-------------------|-------------------|----------------|---------------|
B |-------------------|-------------------|----------------|-Play a run here
G |-7--7--7----5-5----|-------------------|-7--7--7----5-5-|-that starts on|
D |-7-x7-x7-xx-5-5-xx-|-3--3--3----5-5----|-7-x7-x7-xx-5-5-|-the 1st fret of
A |-5-x5-x5-xx-3-3-xx-|-3-x3-x3-xx-5-5-xx-|-5-x5-x5-xx-3-3-|-the 6th string|
E |-------------------|-1-x1-x1-xx-3-3-xx-|----------------|---------------|


CHORUS : 1st guitar play this :                                  2 times
E |---------------|--------------|---------------|----------------------|
B |---------------|--------------|---------------|----------------------|
G |-9--9--9--7----|--------------|-9--9--9--7----|-7--7--7---------9----|
D |-9--9--9--7----|-5--5--5--7---|-9--9--9--7----|-7--7--7-9-9-9-9-9----|
A |-7--7--7--5----|-5--5--5--7---|-7--7--7--5----|-5--5--5-7-7-7-7-7----|
E |---------------|-3--3--3--5---|---------------|----------------------|
  |                                                        PM----/
and second guitar play this :
E |-----------------|--17-19-17-----------|-------------|17(*)-----------|
B |-17--17-19--17-19|20--------20-19-20-19|17--17-19--19|19----20-19-17--|
G |---16------------|--------------\/-\/--|--16-----19--|----------------|
D |-----------------|---------------H-P---|-------------|----------------|
A |-----------------|---------------------|-------------|----------------|
E |-----------------|---------------------|-------------|----------------|
  * Play the lower note the 2nd time and the upper note the 3rd time

When the band sings :"woa--oa-oaoa..." add this guitar line till the end:

E |-----------------|-----10--------------|-------------|----------------|
B |-8---8-10---8-10-|12-13--13-12-10-12-10|-8---8-10--10|10/13--12-10-8--|
G |---9-------------|--------------\/-\/--|---9-----11--|----------------|
D |-----------------|---------------H-P---|-------------|----------------|
A |-----------------|---------------------|-------------|----------------|
E |-----------------|---------------------|-------------|----------------|
(*) Play left of slash the odd times and the right of slash the even times

The keys and guitar solo at the middle of the song are :

E |-----------------|---------------------|---------------------------|----|
B |-----------------|---------------------|---------------------------|----|
G |---H-------------|---H-----------------|---------------------------|----|
D |--/\-------------|--/\------------7-7-7|-7-5-5-------------------2-|----|
A |-5-7---------5-5-|-5-7-----------------|----8-8-7-5-7-5-3--------2-|----|
E |-----------------|---------------------|-----------------6-5-3-1-0-|----|
   (*)To sound more like the keyboard, play this with an octaver that plays
      1 octave lower.

E |------------------|---H------------------|----------------|-----------|
B |-18-17-18-17-15---|--/\------------------|----------------|-----------|
G |-----\/--\/-----17|-16-17-16-------------|-----P---15--12-|-9--7--9---|
D |------H--P--------|---------17-15---14-15|14--/\----------|-----------|
A |------------------|------------------\/--|---16-15-13--10-|-7--5--7---|
E |------------------|-------------------H--|----------------|-----------|
                                                      (Not sure------/)

If you have any comments, please feel free to do it at :
Steve Begin
sbegin@qc.autoroute.net

  development and support by
dmitry ivanov