rock
 
|tablatures   |lyrics   |discussion forums   |more tabs @ XGuitar.com

Helloween tabs

A Little Time bass tab

A LITTLE TIME ( HELLOWEEN )


wait the guitar intro and then start like this


    higher , it's ...                       
G ||--------3-----|----3------|----3------|----3------|-----3-----
D ||-2--2-2---0-2-|-2-2---0-2-|-2-2---0-2-|-2-2---0-2-|-2-2---0-2-
A ||--------------|-----------|-----------|-----------|-----------
E ||--------------|-----------|-----------|-----------|-----------

play this beetween 'life' and 'it's like a wire'
G ||-------3-2-2-2-2-2-2----------------------------
D ||-2-2-0---------------0-0-0-0-0-0----------------
A ||------------------------------------------------
E ||------------------------------------------------ 
     oh i ...                       say ...
G ||--------------------------------------------------------------
D ||--------------------------------4-4-4-4-4-4-4-4-4--7-5-4------
A ||-0-0-0-0-0-0-0-0-0-0-0-0--4-2-0-------------------------------
E ||--------------------------------------------------------------
     this is the way...      of the world ..
G ||-----------------------------3-2--2-2-2-2--2-2-2-2--2-2-2-2---
D ||-2-2-2-2-2-2-2-2-2-2-2-2-2-0----------------------------------
A ||--------------------------------------------------------------
E ||--------------------------------------------------------------
     no ...                   hear what i say ...
G ||--------------------------------------------------------------
D ||--------------------------------4-4-4-4-4-4-4-4-4-4-4-4-4-4-4-
A ||-0-0-0-0-0-0-0-0-0-0-0-0--2-0-2-------------------------------
E ||--------------------------------------------------------------
     i wanna do ..                           way ...
G ||--------------------------------------------------------------
D ||--------------------------------------------------------------
A ||--------------------------------------------------------------
E ||-0-0-0-0-0-0-0-0-0-0-0-0-0-0-3-3-3-3-3-3-5-5-5-5-5-5----------

     A LITTLE TIME         TO BUILD UP ...
G ||-----------------------3-3-3-3-3-3---------------------------- C
D ||-2-2-2-2-2-2-2-2-2-2-2-------------0-0-0-0-0-0---------------- H
A ||-------------------------------------------------------------- O
E ||-------------------------------------------------------------- R
    repeat this riff 4x



     now the guitar solo .. the bass is pretty easy here

G ||----2-2-2-2-----------2-2-2-2--3-4----2-2-2-2--------0-0-0----
D ||-0-----------0-0-0-0---------------0-----------0-0-0-------2-2
A ||--------------------------------------------------------------
E ||--------------------------------------------------------------

G ||----4-4-4-4-----------4-4-4-4---------4-4-4-4--------2-2-2----
D ||-2-----------2-2-2-2-----------0--1-2----------2-2-2-------4--
A ||--------------------------------------------------------------
E ||--------------------------------------------------------------

    NOW THE MUSIC JUST REPEATS...
    that's it ...


if you find any errors , or for comments , email
 >> minotaur@nitnet.com.br

  development and support by
dmitry ivanov