rock
 
|tablatures   |lyrics   |discussion forums   |more tabs @ XGuitar.com

Helloween tabs

A Game We Shouldn't Play guitar tab

Author/Artist: Helloween
      Title: A Game We Shouldn't Play
      Album: I Can Single
      Transcribed by: Mike Wicks
      Email: mwicks@mailexcite.com
      URL:Midnight Sun Helloween Page-http://members.xoom.com/midsun

      Intro:
      
-|-------------------------------------------------------------------------|--
-|-------------------------------------------------------------------------|--
-|-------------------------------------------------------------------------|--
-|--------------4--3-------------------------------------------------------|--
-|-1/6---1--2v--------3--3h4p3h4--2v---------------------------------------|--
-|-------------------------------------------------------------------------|--

      Intro Pt.#2
      
-|---------------------------------------------------------------------------|--
-|---------------------------------------------------------------------------|--
-|---------------------------------------------------------------------------|--
-|---------------5\4---------------------------------------------------------|--
-|---------------5\4---------------------------------------------------------|--
-|-333333333333--3\2---------------------------------------------------------|--
         (---Mute---)

      During verse this is in the background
      
-|--------------------------------------------------------------------------|-
-|--------------------------------------------------------------------------|-
-|--------------------------------------------------------------------------|-
-|--------------------------------------------------------------------------|-
-|-6-7-8-9-8-7-6------------------------------------------------------------|-
-|--------------------------------------------------------------------------|-
        (-Mute-) (Alternate pick)


      Chorus: (he knows you.....)
      
-|-----------|--------------------------------------------------------------|-
-|-----------|--------------------------------------------------------------|-
-|-----------|--------------------------------------------------------------|-
-|-4-----6---|--5-----------------------------------------------------------|-
-|-4-----6---|--5-----------------------------------------------------------|-
-|-2-----4---|--3-----------------------------------------------------------|-
                      ^ This is played at the end of the chorus.

      Lick After Chorus:
      
-|--------------------------|-------------------------------------------------
-|--------------------------|-------------------------------------------------
-|--------------------------|-------------------------------------------------
-|--------------------------|-------------------------------------------------
-|---------4-3--------------|-------------------------------------------------
-|-0-2-3-2------4-3--3-4----|-------------------------------------------------

      *I am unsure about the lick, but it was the closest I could find.
:)

  development and support by
dmitry ivanov