rock
 
|tablatures   |lyrics   |discussion forums   |more tabs @ XGuitar.com

Helloween tabs

A Game We Shouldn't Play bass tab

tune down

F#||--------------------|--------------------|--------------------|
C#||--------------------|--------------------|--------------------|
G#||--------------------|--------------------|--------------------|
D#||--0--------0--------|--0--------0--------|--0--------0--------|



--------------------|--------------------|--------------------|
--------------------|--------------------|--------------------|
--------------------|--------------------|--------------------|
--0--------0--------|--0--------0--------|--0--------0--------|



--------------------|--------------------|----------------------------------|
--------------------|--------------------|----------------------------------|
--------------------|--------------------|------------------------1-1-1-0-0-|
--0--------0--------|--0--------0--------|--0-0-0-0-1-0-0-0-0-0-0-----------|



----------------------------------|----------------------------------|
----------------------------------|----------------------------------|
------------------------1-1-1-0-0-|------------------------1-1-1-0-0-|
--0-0-0-0-1-0-0-0-0-0-0-----------|--0-0-0-0-1-0-0-0-0-0-0-----------|



----------------------------------|----------------------------------|
----------------------------------|----------------------------------|
------------------------1-1-1-0-0-|------------------------1-1-1-0-0-|
--0-0-0-0-1-0-0-0-0-0-0-----------|--0-0-0-0-1-0-0-0-0-0-0-----------|



----------------------------------|----------------------------------|
----------------------------------|----------------------------------|
------------------------1-1-1-0-0-|------------------------1-1-1-0-0-|
--0-0-0-0-1-0-0-0-0-0-0-----------|--0-0-0-0-1-0-0-0-0-0-0-----------|



----------------------------------|----------------------------------|
----------------------------------|----------------------------------|
------------------------1-1-1-0-0-|----------------------------------|
--0-0-0-0-1-0-0-0-0-0-0-----------|--0-0-0-0-0-0-0-0-0-0-0-0-0-0-0-0-|



----------------------------------|--------------------------------------|
----------------------------------|------------------------------9-9-9-9-|
----------------------------------|--7-7-7-7-9-9-9-9-10-10-10-10---------|
--0-0-0-0-0-0-0-0-0-0-0-0-0-0-0-0-|--------------------------------------|



--------------------------------------|----------------------------------|
--7-7-7-7-----------------------------|----------------------------------|
----------10-10-10-10-9-9-9-9-5-5-5-5-|----------------------------------|
--------------------------------------|--0-0-0-0-0-0-0-0-0-0-0-0-0-0-0-0-|



----------------------------------|--------------------------------------|
----------------------------------|------------------------------9-9-9-9-|
----------------------------------|--7-7-7-7-9-9-9-9-10-10-10-10---------|
--0-0-0-0-0-0-0-0-0-0-0-0-0-0-0-0-|--------------------------------------|



--------------------------------------|----------------------------------|
--7-7-7-7-----------------------------|----------------------------------|
----------10-10-10-10-9-9-9-9-5-5-5-5-|----------------------------------|
--------------------------------------|--2-2-2-2-2-2-2-2-2-2-2-2-2-2-2-2-|



----------------------------------|----------------------------------|
----------------------------------|----------------------------------|
----------------------------------|----------------------------------|
--2-2-2-2-2-2-2-2-2-2-2-2-2-2-2-2-|--2-2-2-2-2-2-2-2-2-2-2-2-2-2-2-2-|



----------------------------------|--------------------------|
----------------------------------|--------------------------|
----------------------------------|--3--3--3--3--3--3--3--3--|
--2-2-2-2-2-2-2-2-2-2-2-2-2-2-2-2-|--------------------------|



--------------------------|----------------------------|
--------------------------|-----2-2-2-2------2-2-2-2---|
--5--5--5--5--5--5--5--5--|----------------------------|
--------------------------|--0------------0------------|



------------------------------|--------------------------|
-----2-2-2-2------2-2-2-2-0-0-|--------------------------|
------------------------------|--3--3--3--3--3--3--3--3--|
--0------------0--------------|--------------------------|



--------------------------|----------------------------------|
--------------------------|----------------------------------|
--5--5--5--5--5--5--5--5--|--0-0-0-0-0-0-0-0-0-0-0-0-0-0-0-0-|
--------------------------|----------------------------------|



-------------------|-----------------------|------------------------|
-------------------|---------------2----0--|------------------------|
--3----------------|-----------------------|----3--2--0-------0--3--|
-------------------|--0------0--3----------|---------------3--------|



----------------------------------|----------------------------------|
----------------------------------|----------------------------------|
--3-3-3-3-3-3-3-3-3-3-3-3-3-3-3-3-|--3-3-3-3-3-3-3-3-5-5-5-5-5-5-5-5-|
----------------------------------|----------------------------------|



-----------------------|------------------------|
---------------2----0--|------------------------|
-----------------------|----3--2--0-------0--3--|
--0------0--3----------|---------------3--------|



----------------------------------|-------------------|--------------------|
----------------------------------|-------------------|--------------------|
--3-3-3-3-3-3-3-3-3-3-3-3-3-3-3-3-|--0----------------|--------------------|
----------------------------------|-------------------|--0--------------0--|



--------------------|--------------------|----------------------|
--------------------|--------------------|----------------------|
--------------------|-----------------0--|----0----5----5-------|
----0------------0--|----0---------------|-------------------0--|



--------------------|--------------------|--------------------|
--------------------|--------------------|--------------------|
--------------------|--------------------|-----------------0--|
--0--------------0--|----0------------0--|----0---------------|



----------------------|----------------------------------|
----------------------|----------------------------------|
----0----5----5-------|----------------------------------|
-------------------0--|--2-2-2-2-2-2-2-2-2-2-2-2-2-2-2-2-|



----------------------------------|----------------------------------|
----------------------------------|----------------------------------|
----------------------------------|----------------------------------|
--2-2-2-2-2-2-2-2-2-2-2-2-2-2-2-2-|--2-2-2-2-2-2-2-2-2-2-2-2-2-2-2-2-|



----------------------------------|--------------------------|
----------------------------------|--------------------------|
--2-2-2-2-0-0-0-0-----------------|--3--3--3--3--3--3--3--3--|
------------------4-4-4-4-0-0-0-0-|--------------------------|



--------------------------|----------------------------|
--------------------------|-----2-2-2-2------2-2-2-2---|
--5--5--5--5--5--5--5--5--|----------------------------|
--------------------------|--0------------0------------|



------------------------------|--------------------------|
-----2-2-2-2------2-2-2-2-0-0-|--------------------------|
------------------------------|--3--3--3--3--3--3--3--3--|
--0------------0--------------|--------------------------|



--------------------------|----------------------------------|
--------------------------|----------------------------------|
--5--5--5--5--5--5--5--5--|--0-0-0-0-0-0-0-0-0-0-0-0-0-0-0-0-|
--------------------------|----------------------------------|



-------------------|-----------------------|------------------------|
-------------------|---------------2----0--|------------------------|
--3----------------|-----------------------|----3--2--0-------0--3--|
-------------------|--0------0--3----------|---------------3--------|



----------------------------------|----------------------------------|
----------------------------------|----------------------------------|
--3-3-3-3-3-3-3-3-3-3-3-3-3-3-3-3-|--3-3-3-3-3-3-3-3-5-5-5-5-5-5-5-5-|
----------------------------------|----------------------------------|



-----------------------|------------------------|
---------------2----0--|------------------------|
-----------------------|----3--2--0-------0--3--|
--0------0--3----------|---------------3--------|



----------------------------------|----------------------------------|
----------------------------------|----------------------------------|
--3-3-3-3-3-3-3-3-3-3-3-3-3-3-3-3-|--3-3-3-3-3-3-3-3-5-5-5-5-5-5-5-5-|
----------------------------------|----------------------------------|



----------------------------------|----------------------------------|
----------------------------------|----------------------------------|
----------------------------------|--3-3-3-3-3-3-3-3-3-3-3-3-3-3-3-3-|
--0-0-0-0-0-0-0-0-0-0-0-0-0-0-0-0-|----------------------------------|



----------------------------------|--------------------------|
----------------------------------|-----------5--8-----5-----|
--4-4-4-4-4-4-4-4-4-4-4-4-4-4-4-4-|--7--5--7--------7-----5--|
----------------------------------|--------------------------|



----------------------------------|----------------------------------|
----------------------------------|----------------------------------|
----------------------------------|--3-3-3-3-3-3-3-3-3-3-3-3-3-3-3-3-|
--0-0-0-0-0-0-0-0-0-0-0-0-0-0-0-0-|----------------------------------|



----------------------------------|--------------------------|
----------------------------------|-----------5--8-----5-----|
--4-4-4-4-4-4-4-4-4-4-4-4-4-4-4-4-|--7--5--7--------7-----5--|
----------------------------------|--------------------------|



-------------------|-------------------|-------------------|-------------------|
-------------------|-------------------|-------------------|-------------------|
--7----------------|--3----------------|--4----------------|--3----------------|
--0----------------|-------------------|-------------------|-------------------|



------------------------------|------------------------------|
------------------------------|------------------------------|
------------------------------|------------------------------|
--2--2-2-2--2-2-2--2-2-2--2-2-|--0--0-0-0--0-0-0--0-0-0--0-0-|



------------------------------|------------------------------|
------------------------------|------------------------------|
------------------------------|--3--3-3-3--3-3---------------|
--2--2-2-2--2-2-2--2-2-2--2-2-|----------------3--3-3-3--3-3-|



------------------------------|------------------------------|
------------------------------|------------------------------|
------------------------------|------------------------------|
--2--2-2-2--2-2-2--2-2-2--2-2-|--0--0-0-0--0-0-0--0-0-0--0-0-|



------------------------------|------------------------------|
------------------------------|------------------------------|
------------------------------|--3--3-3-3--3-3---------------|
--2--2-2-2--2-2-2--2-2-2--2-2-|----------------3--3-3-3--3-3-|



-------------------|-------------------|-------------------|
-------------------|-------------------|-------------------|
-------------------|-------------------|--4----------------|
--4----------------|--4----------------|-------------------|



---------------------|----------------------------------|
---------------------|----------------------------------|
---------------------|------------------------1-1-1-0-0-|
--2--------3----4----|--0-0-0-0-1-0-0-0-0-0-0-----------|



----------------------------------|----------------------------------|
----------------------------------|----------------------------------|
------------------------1-1-1-0-0-|------------------------1-1-1-0-0-|
--0-0-0-0-1-0-0-0-0-0-0-----------|--0-0-0-0-1-0-0-0-0-0-0-----------|



----------------------------------|----------------------------------|
----------------------------------|----------------------------------|
------------------------1-1-1-0-0-|------------------------1-1-1-0-0-|
--0-0-0-0-1-0-0-0-0-0-0-----------|--0-0-0-0-1-0-0-0-0-0-0-----------|



----------------------------------|----------------------------------|
----------------------------------|----------------------------------|
------------------------1-1-1-0-0-|------------------------1-1-1-0-0-|
--0-0-0-0-1-0-0-0-0-0-0-----------|--0-0-0-0-1-0-0-0-0-0-0-----------|



----------------------------------|----------------------------------|
----------------------------------|----------------------------------|
------------------------1-1-1-0-0-|----------------------------------|
--0-0-0-0-1-0-0-0-0-0-0-----------|--0-0-0-0-0-0-0-0-0-0-0-0-0-0-0-0-|



----------------------------------|----------------------------------|
----------------------------------|----------------------------------|
--3-3-3-3-3-3-3-3-3-3-3-3-3-3-3-3-|--4-4-4-4-4-4-4-4-4-4-4-4-4-4-4-4-|
----------------------------------|----------------------------------|



----------------------------------|----------------------------------|
----------------------------------|----------------------------------|
--4-4-4-4-4-4-4-4-4-4-4-4-4-4-4-4-|----------------------------------|
----------------------------------|--0-0-0-0-0-0-0-0-0-0-0-0-0-0-0-0-|



----------------------------------|-------------------|-------------------|
----------------------------------|-------------------|-------------------|
--3-3-3-3-3-3-3-3-3-3-3-3-3-3-3-3-|--4----------------|--3----------------|
----------------------------------|-------------------|-------------------|



-----------------------|------------------------|
---------------2----0--|------------------------|
-----------------------|----3--2--0-------0--3--|
--0------0--3----------|---------------3--------|



----------------------------------|----------------------------------|
----------------------------------|----------------------------------|
--3-3-3-3-3-3-3-3-3-3-3-3-3-3-3-3-|--3-3-3-3-3-3-3-3-5-5-5-5-5-5-5-5-|
----------------------------------|----------------------------------|



-----------------------|------------------------|
---------------2----0--|------------------------|
-----------------------|----3--2--0-------0--3--|
--0------0--3----------|---------------3--------|



----------------------------------|----------------------------------|
----------------------------------|----------------------------------|
--3-3-3-3-3-3-3-3-3-3-3-3-3-3-3-3-|--3-3-3-3-3-3-3-3-5-5-5-5-5-5-5-5-|
----------------------------------|----------------------------------|



----------------------------------|----------------------------------|
----------------------------------|----------------------------------|
------------------------1-1-1-0-0-|------------------------1-1-1-0-0-|
--0-0-0-0-1-0-0-0-0-0-0-----------|--0-0-0-0-1-0-0-0-0-0-0-----------|



----------------------------------|----------------------------------||
----------------------------------|----------------------------------||
------------------------1-1-1-0-0-|------------------------1-1-1-0-0-||
--0-0-0-0-1-0-0-0-0-0-0-----------|--0-0-0-0-1-0-0-0-0-0-0-----------||
  development and support by
dmitry ivanov