rock
 
|tablatures   |lyrics   |discussion forums   |more tabs @ XGuitar.com

Guns N Roses tabs

You Could Be Mine bass tab

You Could Be Mine
Guns N' Roses

Tabbed by Paul

bobnmaion@aol.com

Bass intro.
g----------------
d----------------
a----------------
e--0--7-7--5--3--



The below part is repeated over and over again in the beginning and all the
way through Slash's beginning guitar work. Make sure when you play this part
that you keep in time with the beat.

g---------
d---------
a---------
e--0-00-3-



After Slash has done his thing the keyboard enters with a scale. Make sure
that every time the keyboard goes up a octive that you go up to the next fret
like seen below.

g-------------------------------------------------------------------
d-------------------------------------------------------------------
a-------------------------------------------------------------------
e--0-0-0-0-0-0-0-0-2-2-2-2-2-2-2-2-3-3-3-3-3-3-3-3-5-5-5-5-5-5-5-5--



As the keyboard playes that last of the keyboard scale Duff and Izzy enter
playing the main riff.

Play LICK 1 twice then play LICK 2 followed by LICK 1 again as Slash enters
with his guitar intro.

|___________LICK_1____________|  |___________LICK_2____________|
g-------------------------------  -------------------------------
d-------------------------------  -------------------------------
a-------------------------------  -------------------------------
e--0--2--0--2-2-2--0--5-5-5--3--  --0---5-5--3-3--2-2---0--2--3--



The above is repeated twice more through the verses. If you do it right it
should turn out like this.

	LICK 1
	"I'm a cold heartbreaker fit ta burn"

	LICK 1
	"And I'll rip your heart in two"

	LICK 2
	"An I'll leave you lyin' on the bed" [LICK 1]



Here's the chorus. (Sorry but the words don't match up to the notes.)

'Cause you could be mi-e-ine	  But your way out of li-e-ine
g--------------------        	--------------------------------
d--------------------		--------------------------------
a--------------------		--------------------------------
e--3-5-----4--2-5-2--		--2--4--5-----7--4-4-2--0-2-0-2-

With your bitch slap rappin' and you cocaine tunge
g---------------------------
d---------------------------
a---------------------------
e--2--4--5-5-5-5-5-5-4-2-2--

   You get nothin' done		I said you could be mi__ine
g----------------------------	-----------------
d----------------------------	-----------------
a----------------------------	-----------------
e--2--4--5-----4-----2--222--	--9--7--9--5--2--
  development and support by
dmitry ivanov