rock
 
|tablatures   |lyrics   |discussion forums   |more tabs @ XGuitar.com

Guns N Roses tabs

Yesterdays bass tab

G:------------------6-8-6---------|
D:---------------/8-------8-8-----|
A:4--4-4-4-2---4---------------2--|
E:-----------2-------------------2|

G:-----------------|
D:-----------------|
A:4---2--2-----4---|
E:---------2------2|

G:----------------|----------------|
D:----------------|----------------|
A:4--4--4--4--2---|4--4--4--4--2---|
E:---------------2|---------------2|

G:----------------------|-------------|
D:----------------------|----2---3---4|
A:4--2------2--2--2-----|4------------|
E:-----2--2---------2--2|-------------|

(Chorus)
G:---------------------------|
D:---------------------------|  x2
A:------1--2----2--1--------1|
E:4--4----------------2--4---|

G:------------------------------|
D:------------------------------|
A:1--1-----1--1--1--------------|
E:------4-----------2----4--2--2|

G:----------------------------------------------------------|
D:----------------------------------------------------------|
A:1--1-----1--1--2--3---1--3--3---4--4--2--4--4--6-6-6-6-6-6|
E:------4---------------------------------------------------|

G:------------------6-8-6---------|
D:---------------/8-------8-8-----|
A:4--4-4-4-2---4---------------2--|
E:-----------2-------------------2|

G:----------------------|-------------|------------------|
D:----------------------|----2---3---4|---4-3-2----------|
A:4--2------2--2--2-----|4------------|0--------0-4-3-2--|
E:-----2--2---------2--2|-------------|-----------------2|

(Chorus)
G:---------------------------|
D:---------------------------|  x3
A:------1--2----2--1--------1|
E:4--4----------------2--4---|

(Outro)
G:-----------------------------------|
D:-----------------------------------|
A:------1--2---2---2---2---2---2--2--|
E:4--4-------------------------------|
  development and support by
dmitry ivanov