rock
 
|tablatures   |lyrics   |discussion forums   |more tabs @ XGuitar.com

Guns N Roses tabs

Think About You bass tab

Guns 'n Roses - Think About You
Tabbed by JimmyP
Tune up a half step.

Intro
Ab|------------------------------------
Eb|-0-----------------------2-3-3333---
Bb|---0-00003--------------------------  x2
F |-----------3-33330-1-1111-----------

Verse
Ab|------------------------------------
Eb|------------------------------------
Bb|---0~-0--0-0-0----------------------
F |-3---0--0---0--03-0303-3-03---------

Ab|------------------------------------
Eb|------------------------------------
Bb|--0-0--0--0-0--0-----------10-------
F |-0----0--0----0--0-3-0-3-33--31100--

Pre Chorus
Ab|------------------------------------
Eb|------------------------------------
Bb|---------------------------10-10----
F |-1-1-11-11-111111133-33-33---3--33--

Ab|------------------------------------
Eb|------------------------------------
Bb|------------------------------------
F |-1-1-11-11-111111133333333333-------

(Repeat intro / verse / pre chorus)

then...

Ab|-------------
Eb|-5-3-----333-
Bb|-------------
F |-------------
    i think about...

chorus 1
Ab|------------------------------------
Eb|------------------------------------
Bb|-0-0--00-3-3-33-3-------------------  x4
F |-----0--0--------1-1-11-11-1111-3---
    you...

chorus 2 (4th loop of chorus)
Ab|------------------------------------
Eb|------------------------------------
Bb|------------------------------------
F |-000000001212121212121212-----------

Bridge / Solo
Ab|----------------------------------------------
Eb|-----------------2-20-000---------------------
Bb|---------0-02-222--------3-32-222222222222222-
F |-0-02-222-------------------------------------

Ab|------------------------------------
Eb|------------------------------------
Bb|-----2-------2----------------------
F |-0-------0--------------------------
    x16 x16 x16 x13

Ab|------------------------------------
Eb|---0-0000---------------------------
Bb|-33------0-3-3333--2-222222222222---  x4
F |----------0------30-----------------

(Repeat verse / pre chorus / chorus 1)

Outro
Ab|------------------------------------
Eb|------------------------------------
Bb|-0-00-00-0----0-00-00-0-------------
F |-----------3-3----------3-3---------

Ab|-202020-0202020-0-------------------
Eb|-------2-------2--------------------
Bb|----------------------2-2-----------
F |-----------------1~-3----3----------

Outro
Ab|---------------------------------------------
Eb|---------------------------------------------
Bb|-0-00-00-0----0-00-00-0----0-00-00-0---------
F |-----------3-3----------3-3----------3-3-1~--


Fin ---/\---
  development and support by
dmitry ivanov