rock
 
|tablatures   |lyrics   |discussion forums   |more tabs @ XGuitar.com

Guns N Roses tabs

Shotgun Blues bass tab

Guns N' Roses - Shotgun Blues

^ = hammer on

this is my first tab so dont be too brutal


   tuned half step down
G|----------------------|
D|-13/1-----------------|  pick fast on this part
A|----------------------|
E|----------------------|

G|---------------------------------------------------------------:|
D|---------------------------------------------------------------:|
A|-6-6-6-6----6-6-6--3---3-3-3-3----4-4-4-4-4-4-4-4-4-4-4-4-4-4-4:|
E|---------------------------------------------------------------:|

G|-----------------------------------------------------------------|
D|-----------------------------------------------------------------| *
A|-2-2----2-2-2-2---2-2-2-2---2-2-2-2------------------------------|
E|-----------------------------------------------------------------|

G|-----------------------------------------|
D|-----------------------------------------| *
A|-4-4----4-4-4-4---4-4-4-4---4-4-4-4------|
E|-----------------------------------------|

G|---------------------------------------------|
D|---------------------------------------------|
A|-6-6----6-6-6-6---6-6-6-6---6-6-6-6----------|  Reapeat all of the above
E|---------------------------------------------|  which is marked by *


G|-----------------------------------------------------------------|
D|-----------------------------------------------------------------|
A|-----------------------------------------------------------------|
E|-6-6-6-6---6-6-6-6----5^6-6-5^6-6-5^6----------------------------|

G|------------------------------------------------------------------| repeat
D|------------------------------------------------------------------| this
A|------------------------------------------------------------------| and
E|-4-4-4-4---4-4-4-4----3^4-4-3^4-4-3^4-----------------------------| one
                                                                    above
                                                                      it

G|-----------------------------------------------|
D|-----------------------------------------------|
A|-4-4-4-4---4-4-4-4----3^4-4-3^4-4-3^4----------|
E|-----------------------------------------------|

G|-----------------------------------------------|
D|-----------------------------------------------|
A|-6-6-6-6---6-6-6-6----5^6-6-5^6-6-5^6----------|
E|-----------------------------------------------|


im actually not too sure about the last part im not sure if those are supposed to be
ons or what but you'll figure it out hopefully.
  development and support by
dmitry ivanov