rock
 
|tablatures   |lyrics   |discussion forums   |more tabs @ XGuitar.com

Guns N Roses tabs

Reckless Life bass tab

tabbed by Doug(appetite_for_destruction69@hotmail.com)
standard tuning

Intro  2x
|-----------------------------------------|
|-----------------------------------------|
|--3p0-----0--0-3p0-----0-x-x-x-5--3--3-3-|
|-------3------------3--------------------|

|-----------------------------------------|
|-----------------------------------------|
|--3p0-----0--0-3p0-----0-x-x-x-2--0--0-0-|
|-------3------------3--------------------|

Verse
|-----------------------------------|
|-----------------------------------| 2x
|-3333333333-5-3-----3333333333-2-0-|
|-----------------------------------|

|----------------------------------------|
|----------------------------------------|
|--6-5--333333333333---------------------|
|--------------------4-3--111111111111-0-|

Bridge
|-----------------------------------------|
|-----------------------------------------|
|--3p0-----0--0-3p0-----0-x-x-x-5--3--3-3-|
|-------3------------3--------------------|

|-----------------------------------------|
|-----------------------------------------|
|--3p0-----0--0-3p0-----0-x-x-x-2--0--0-0-|
|-------3------------3--------------------|

Verse
|-----------------------------------|
|-----------------------------------| 2x
|-3333333333-5-3-----3333333333-2-0-|
|-----------------------------------|

|----------------------------------------|
|----------------------------------------|
|--6-5--333333333333---------------------|
|--------------------4-3--111111111111-0-|

Chorus
|-----------------------------------|
|-----------------------------------| 2x
|-3333333333-5-3-----3333333333-2-0-|
|-----------------------------------|

Solo
|-----------------------------------------|
|-----------------------------------------|
|--3p0-----0--0-3p0-----0-x-x-x-5--3--3-3-|
|-------3------------3--------------------|

|-----------------------------------------|
|-----------------------------------------|
|--3p0-----0--0-3p0-----0-x-x-x-2--0--0-0-|
|-------3------------3--------------------|

Chorus
|-----------------------------------| keep repeating until end of song
|-----------------------------------|
|-3333333333-5-3-----3333333333-2-0-|
|-----------------------------------|

end with
|-----------------|
|-----------------|
|--3-2-3-2-3-2--0-|
|-----------------|
  development and support by
dmitry ivanov