rock
 
|tablatures   |lyrics   |discussion forums   |more tabs @ XGuitar.com

Guns N Roses tabs

Paradise City guitar chords

From: "Thomas W. Bajzek" 
Paradise City By Guns N' Roses

Here's how the riff really goes.

--------------------------------------------------------------------------
--------------------------------------------------------------------------
--------------------------------------------------------------------------
--------------------------------------------------------------------------
----------------------------------------------------------1---------------
---3----1----2----3----1----2----3----1----3----1----3--------------------


--------------------------------------------------------------------------
--------------------------------------------------------------------------
--------------------------------------------------------------------------
--------------------------------------------------------------------------
-----------------------------------------------------3----1---------------
---3----1----2----3----1----2----3----1----3----1-------------------------


--------------------------------------------------------------------------
--------------------------------------------------------------------------
--------------------------------------------------------------------------
--------------------------------------------------------------------------
----------------------------------------------------------1---------------
---3----1----2----3----1----2----3----1----3----1----3--------------------


--------------------------------------------------------------------------
--------------------------------------------------------------------------
--------------------------------------------------------------------------
--------------------------------------------------------------------------
-----------------------------------------------------3----1---------------
---3----1----2----3----1----2----3----1----3----1-------------------------

On the album, two guitars do this, but 1 does this starting at the 5th fret
on the D string.
  development and support by
dmitry ivanov