rock
 
|tablatures   |lyrics   |discussion forums   |more tabs @ XGuitar.com

Guns N Roses tabs

New Rose bass tab

New Rose
Guns N' Roses
The Spaghetti Incident?
Duff McKagan

drop 1/2 step (Eb,Ab,Db,Gb)

w/ pick

Note: Ian Higbee tabbed the original song, which was New Rose by the Damned. This here is
a beter version of the song, done by none other than...Guns N' Roses. There are slight
variations throughout the song, as seen below...enjoy!

here's the tab!

Intro/Chorus
g----------------------------------|
d-3-3-5----------------------------|
a---------6--6-6-6-5h6-6-6-5h6-6-6-|
e----------------------------------|

Verse
g-------------------------------------------------------|
d-------------------------------------------------------|
a-3-3-3-3-3-3-3-3-3-2-0-0-0-0-0-0-0-0-0-0-0-2-3-3333333-|
e-------------------------------------------------------|

Bridge
g-------------------------------------------------------|
d-------------------------------------------------------|
a-0-0-0-0-0-0-0-0-0-2-2-2-2-2-2-2-2-2-3-3-3-3-3-3-3-3-3-|
e-------------------------------------------------------|

just put it together, and you'll figure it out!

Gn'Fn'Rs FOREVER
Chinese Democracy will be here soon...hopefully!

any suggestions or shit like that, email me at duff_198@hotmail.com
  development and support by
dmitry ivanov