rock
 
|tablatures   |lyrics   |discussion forums   |more tabs @ XGuitar.com

Guns N Roses tabs

Mama Kin guitar tab

Mama Kin (originally recorded by Aerosmith)
Guns N' Roses
Live like a suicide & GN'R Lies

Tabbed by:       Juan Maria Araujo
                 jmaraujo@adinet.com.uy

                 Monica Glowinski (for the verse part)
                 mglowins@concentric.net

                 and Stephen Iggulden (chords and solo)
                 dwigg@interlog.com

 Intro
|-----------|------------------------------------------------------|
|-----------|------------------------------------------------------|
|--x--x--x--|---9--9--9--9--9--------------------------------------|
|--x--x--x--|---9--9--9--9--9----9--9--9--9--9----7--7--7--7--7----|
|--x--x--x--|---7--7--7--7--7----9--9--9--9--9----7--7--7--7--7----|
|-----------|--------------------7--7--7--7--7----5--5--5--5--5----|

 For the verses you play: (thanks Monica!)
|-------------------------------------------------|
|-------------------------------------------------|
|-------------------------------------------------|
|--2-2--4--2-2---5-4--2-2-4-2-2-------------------|
|--2-2--4--2-2---5-4--2-2-4-2-2-------------------|
|-------------------------------------------------|

 Chorus           Keepin' touch with mama kin...
|---------------|-----------------------------------|
|---------------|-----------------------------------|
|---------------|---------------------------9-------|
|-----2--2--2---|---------------------9--9--9-------|
|-----2--2--2---|---------------------9--9--7-------|
|-----0--0--0---|---------------------7--7----------|

Chords:
First verse:

E5            B5.                   A5                       E5.
it ain't easy livin' like a gypsy  tell ya honey how it feels

E5                  B5                      A5                            E5
i've been dreaming floatin' down stream and losin' touch with all that's real

                  B5                  A5                      E
whole lotta lover keepin' under cover never knowin' where you been

         E5                  B5                 A5
oo yeah  you've been fadin' always out paradin' keep in touch with mama

  E  F#5 G5 G#5   A5                            E5             A5
kin            you always got your tail on the wag    spittin' fire from your

               E5          F#5 G5 G#5    A5                    E5
mouth just like a drag - on         you act like a perpetual drag

   F#5
you better check it out cause someday soon you'll have to climb back on the

B5
wag - on.

 Guitar solo:
|-17--------17--------17--------17-17--------17--------17--------17--------17-------|
|----20p17-----20p17-----20p17--------20p17-----20p17-----20p17-----20p17-----20p17-|
|-----------------------------------------------------------------------------------|
|-----------------------------------------------------------------------------------|
|-----------------------------------------------------------------------------------|
|-----------------------------------------------------------------------------------|

|------------------------------------------------------------------------------17----20~~~|
|-17h20p17----17h20p17----17h20p17----17------------------------------------17----17-19~~~|
|----------20----------20----------20----20p19-17----19p17h18-19-17h18-17h18--------------|
|-------------------------------------------------19--------------------------------------|
|-----------------------------------------------------------------------------------------|
|-----------------------------------------------------------------------------------------|

Chords used : E5 => X799XX  B5 => 799XXX  F#5 => 244XXX  G5 => 355XXX  G#5 => 466XXX

If anyone knows solo/verses etc. send it
by e-mail at: jmaraujo@adinet.com.uy
and I'll add to this tab. Thanks.


--------------------------------------------------------------------------

Mama Kin (originally recorded by Aerosmith)
Guns N' Roses
Live like a suicide & GN'R Lies


Tabbed by:       Jonny
                 ca6jri@isis.sunderland.ac.uk

 Intro
|------------------------------------------------|
|------------------------------------------------|
|------------------------------------------------|
|-9-----9-11-p9--9--9--x-------------------------|
|-7-----7--7--7--7--7--x--9-----9-11-p9--9--9--x-|
|-------------------------7-----7--7--7--7--7--x-|
  1  &  2  &  3  &  4  &  1  &  2  &  3  &  4  &

|------------------------------------------------|
|------------------------------------------------|
|------------------------------------------------|
|------------------------------------------------|
|-7-----7--9pp7--7--7--x--2-----2--4pp2--2--2--x-|
|-5-----5--5--5--5--5--x--0-----0--0--0--0--0--x-|
  1  &  2  &  3  &  4  &  1  &  2  &  3  &  4  &

|------------------------------------------------|
|------------------------------------------------|
|------------------------------------------------|
|-9-----9-11pp9--9--9--x-------------------------|
|-7-----7--7--7--7--7--x--9-----9-11pp9--9--9--x-|
|-------------------------7-----7--7--7--7--7--x-|
  1  &  2  &  3  &  4  &  1  &  2  &  3  &  4  &

                                     x4
|------------------------|------------------------|
|------------------------|------------------------|
|------------------------|*----------------------*|
|------------------------|*----------------------*|
|-7-----7--9pp7--7--7--x-|-2-----2--4-----5--4--2-|
|-5-----5--5--5--5--5--x-|-0-----0--0-----0--0--0-|
  1  &  2  &  3  &  4  &   1  &  2  &  3  &  4  &

 Verse
|------------------------------------------------|
|------------------------------------------------|
|------------------------------------------------|
|-9-----9-11pp9--9--9--x-------------------------|
|-7-----7--7--7--7--7--x--9-----9-11pp9--9--9--x-|
|-------------------------7-----7--7--7--7--7--x-|
  1  &  2  &  3  &  4  &  1  &  2  &  3  &  4  &

                                   x2
|------------------------|------------------------|
|------------------------|------------------------|
|------------------------|------------------------|
|------------------------|------------------------|
|-7-----7--9pp7--7--7--x-|-2-----2--4-----5--4--2-|
|-5-----5--5--5--5--5--x-|-0-----0--0-----0--0--0-|
  1  &  2  &  3  &  4  &   1  &  2  &  3  &  4  &

In the verse the above is played three times then this is played
|------------------------------------------------|
|------------------------------------------------|
|------------------------------------------------|
|-9-----9-11pp9--9--9--x-------------------------|
|-7-----7--7--7--7--7--x--9-----9-11pp9--9--9--x-|
|-------------------------7-----7--7--7--7--7--x-|
  1  &  2  &  3  &  4  &  1  &  2  &  3  &  4  &

|----------------------------------------------------------------|
|----------------------------------------------------------------|
|----------------------------------------------------------------|
|----------------------------------------------------------------|
|-7-----7--9pp7--7--7--x--2-----2--4-----5--4--2---2-4-4-5-5-6-6-|
|-5-----5--5--5--5--5--x--0-----0--0-----0--0--0---0-2-2-3-3-4-4-|
  1  &  2  &  3  &  4  &  1  &  2  &  3  &  4  & 1 & 2 & 3 & 4 &

 Pre-Chorus                   x2
|-----------------------------------------------------------------|
|-----------------------------------------------------------------|
|-----------------------------------------------------------------|
|-7--------7-----7--7--7--2-----2--2-----2------------------------|
|-7--------7-----7--7--7--2-----2--2-----2----------2-4-4-5-5-6-6-|
|-5--------5-----5--5--5--0-----0--0-----0----------0-2-2-3-3-4-4-|
  1  &  2  &  3  &  4  &  1  &  2  &  3  &  4  &  1 & 2 & 3 & 4 &

|-------------------------------------------------|
|-------------------------------------------------|
|-------------------------------------------------|
|-7--------7-----7--7--7--2-----2--2-----2--------|
|-7--------7-----7--7--7--2-----2--2-----2--------|
|-5--------5-----5--5--5--0-----0--0-----0--------|
  1  &  2  &  3  &  4  &  1  &  2  &  3  &  4  &

|-----------------------------------------------------------------|
|-----------------------------------------------------------------|
|-----------------------------------------------------------------|
|---------------------------------4---4---4-4---4---4---4---------|
|-4-4-4-4-4-4-4-4-4-4-4-4-4-4-4-4-2---2---2-2---2---2---2---------|
|-2-2-2-2-2-2-2-2-2-2-2-2-2-2-2-2---------------------------------|
  1 & 2 & 3 & 4 & 1 & 2 & 3 & 4 & 1 & 2 & 3 & 4 & 1 & 2 & 3 & 4 &

 Chorus                x 4
|------------------------------------------------|
|------------------------------------------------|
|-------------9----------------------------------|
|-9-----9-----9----------------------------------|
|-9-----9-----7-----s----------------------------|
|-7-----7----------------------------------------|
  1  &  2  &  3  &  4  &  1  &  2  &  3  &  4  &

                       x 4
|------------------------------------------------|
|------------------------------------------------|
|-------------9-----x-12----12-12--x-10-10-10----|
|-9-----9-----9-----x-12----12-12--x-10-10-10----|
|-9-----9-----7-----x-10----10-10--x--8--8--8----|
|-7-----7----------------------------------------|
  1  &  2  &  3  &  4  &  1  &  2  &  3  &  4  &

 Guitar solo
|17-------17-------17-------17-------17-------17-------17-------17-------|
|---20p17----20p17----20p17----20p17----20p17----20p17----20p17----20p17-|
|------------------------------------------------------------------------|
|------------------------------------------------------------------------|
|------------------------------------------------------------------------|
|------------------------------------------------------------------------|

     x 3
|------------|------------------------------------------17----20~~~|
|17h20p17----|-17------------------------------------17----17-19~~~|
|---------20-|---20p19-17----19p17h18-19-17h18-17h18---------------|
|------------|------------19---------------------------------------|
|------------|-----------------------------------------------------|
|------------|-----------------------------------------------------|

Thats it!

The song comprises of these riffs in the following order

INTRO - VERSE - PRE-CHORUS - CHORUS - VERSE
PRE-CHORUS - CHORUS - SOLO - CHORUS

*****************************************************
|    Appetite for tablatures home page              |
|    http://www.geocities.com/SunsetStrip/7317/     |
*****************************************************
  development and support by
dmitry ivanov