rock
 
|tablatures   |lyrics   |discussion forums   |more tabs @ XGuitar.com

Guns N Roses tabs

Locomotive bass tab

Tune down

F#||------------------|------------------|------------------|------------------|
C#||------------------|------------------|------------------|------------------|
G#||------------------|------------------|------------------|------------------|
D#||------------------|------------------|------------------|------------------|



-------------------|---------------------------|-------------------------|
-------------------|--------------0--0-1--1-2--|----2--4--2--4--2--4-----|
----------------0--|----0--4-0-0---------------|----------------------0--|
-------------------|---------------------------|-------------------------|



---------------------------|-------------------------|
--------------0--0-1--1-2--|----2--4--2--4--2--4-----|
----0--4-0-0---------------|----------------------0--|
---------------------------|-------------------------|



---------------------------|-------------------------|
--------------0--0-1--1-2--|----2--4--2--4--2--4-----|
----0--4-0-0---------------|----------------------0--|
---------------------------|-------------------------|



---------------------------|----------------0--------|-------------------------|
--------------0--0-1--1-2--|----2--4--2--4-----4--2--|------0-2--0-2--0--0--2--|
----0--4-0-0---------------|-------------------------|-------------------------|
---------------------------|-------------------------|-------------------------|



-------------------------|-------------------------|------------0----0----|
------0-2--0-2--0--0--2--|------0-2--0-2--0--0--2--|------0-2-------------|
-------------------------|-------------------------|----------------------|
-------------------------|-------------------------|----------------------|



--2-----2----2----2----------|--2-----2----2----2----------|
------4----4----4----2-2-4-2-|------4----4----4----2-2-4-2-|
-----------------------------|-----------------------------|
-----------------------------|-----------------------------|



--2-----2----2----2----------|--2-----2----2----2----------|
------4----4----4----2-2-4-2-|------4----4----4----2-2-4-2-|
-----------------------------|-----------------------------|
-----------------------------|-----------------------------|



--2--2--2--2--2--2--------|--2--2--2--2--2--2--------|
--------------------2--2--|--------------------2--4--|
--------------------------|--------------------------|
--------------------------|--------------------------|



--2--2--2--2--2--2--------|--2--2--2--2--2--2------2---|
--------------------2--2--|--------------------2-4---2-|
--------------------------|----------------------------|
--------------------------|----------------------------|



--2--2--2--2--2--2--------|--2--2--2--2--2--2--------|
--------------------2--2--|--------------------2--4--|
--------------------------|--------------------------|
--------------------------|--------------------------|



--2--2--2--2--2--2--------|--2--2--2--2--2--2--------|
--------------------2--2--|--------------------2--4--|
--------------------------|--------------------------|
--------------------------|--------------------------|



--2--2--2--2--2--2--------|--2--2--2--2--2--2--------|
--------------------2--2--|--------------------2--4--|
--------------------------|--------------------------|
--------------------------|--------------------------|



--2--2--2--2--2--2--------|--2--2--2--2--2--2--------|
--------------------2--2--|--------------------2--4--|
--------------------------|--------------------------|
--------------------------|--------------------------|



--2--2--2--2--2--2--------|--2--2--2--2--2--2--------|
--------------------2--2--|--------------------2--4--|
--------------------------|--------------------------|
--------------------------|--------------------------|



--2--2--2--2--2--2--------|--2--2--2--2--2--2--------|
--------------------2--2--|--------------------2--4--|
--------------------------|--------------------------|
--------------------------|--------------------------|



--2--2--2--2--2--2--------|--2--2--2--2--2--2--------|
--------------------2--2--|--------------------2--4--|
--------------------------|--------------------------|
--------------------------|--------------------------|



--2--2--2--2--2--2--------|--2--2--2--2--2--2--------|--------------0--1--2--|
--------------------2--2--|--------------------2--4--|------4----4-----------|
--------------------------|--------------------------|-----------------------|
--------------------------|--------------------------|-----------------------|



------2----2--1--0-----|--------------0--1--2--|------2----2--1--0-----|
--------------------4--|------4----4-----------|--------------------4--|
-----------------------|-----------------------|-----------------------|
-----------------------|-----------------------|-----------------------|



--------------0--------|-----------------------|-----------------------|
------4----4-----4--2--|------2----2--0--2--2--|------2----2--0--2--2--|
-----------------------|-----------------------|-----------------------|
-----------------------|-----------------------|-----------------------|



-----------------------|-----------0----1----|--2--2--2--2--2--2--------|
------2----2--0--2--2--|------2--------------|--------------------2--4--|
-----------------------|---------------------|--------------------------|
-----------------------|---------------------|--------------------------|



--2--2--2--2--2--2--------|--2--2--2--2--2--2--------|
--------------------2--4--|--------------------2--4--|
--------------------------|--------------------------|
--------------------------|--------------------------|



--2--2--2--2--2--2--------|--2--2--2--2--2--2--------|
--------------------2--4--|--------------------2--4--|
--------------------------|--------------------------|
--------------------------|--------------------------|



--2--2--2--2--2--2--------|--2--2--2--2--2--2--------|
--------------------2--4--|--------------------2--4--|
--------------------------|--------------------------|
--------------------------|--------------------------|



--2--2--2--2--2--2--------|--2--2--2--2--2--2--------|
--------------------2--4--|--------------------2--4--|
--------------------------|--------------------------|
--------------------------|--------------------------|



--2--2--2--2--2--2--------|--2--2--2--2--2--2--------|
--------------------2--4--|--------------------2--4--|
--------------------------|--------------------------|
--------------------------|--------------------------|



--2--2--2--2--2--2--------|--2--2--2--2--2--2--------|
--------------------2--4--|--------------------2--4--|
--------------------------|--------------------------|
--------------------------|--------------------------|



--2--2--2--2--2--2--------|--2--2--2--2--2--2--------|
--------------------2--4--|--------------------2--4--|
--------------------------|--------------------------|
--------------------------|--------------------------|



--2--2--2--2--2--2--------|--2--2--2--2--2--2--------|
--------------------2--4--|--------------------2--4--|
--------------------------|--------------------------|
--------------------------|--------------------------|



--2--2--2--2--2--2--------|--2--2--2--2--2--2--------|
--------------------2--4--|--------------------2--4--|
--------------------------|--------------------------|
--------------------------|--------------------------|



--0--0--0--0--0--0--1--2--|--0--0--0--0--0--0--1--2--|
--------------------------|--------------------------|
--------------------------|--------------------------|
--------------------------|--------------------------|



--2--2--1--1--0--0--------|-----7--5----------------|--------------------------|
--------------------4--4--|--3--------6--7--7----7--|--7--7--6--6--5--5--4--4--|
--------------------------|-------------------------|--------------------------|
--------------------------|-------------------------|--------------------------|



-----7--5----------------|--------------------------|-----7--5----------------|
--3--------6--7--7----7--|--7--7--6--6--5--5--4--4--|--3--------6--7--7----7--|
-------------------------|--------------------------|-------------------------|
-------------------------|--------------------------|-------------------------|



--------------------------|-----7--5----------------|--------------------|
--7--7--6--6--5--5--4--4--|--3--------6--7--7----7--|--7-7---------------|
--------------------------|-------------------------|--------------------|
--------------------------|-------------------------|--------------------|



--------------------|--------------------|--------------------|
--7-7---------------|--7-7---------------|--7-7---------------|
--------------------|--------------------|--------------------|
--------------------|--------------------|--------------------|



----7-------7---------|----7-------7---------|----7-------7---------|
--------7-------7-----|--------7-------7-----|--------7-------7-----|
----------------------|----------------------|----------------------|
----------------------|----------------------|----------------------|



----7-------|--5----------------|--2--2--2--2--2--2--------|
--------7---|-------------------|--------------------2--4--|
------------|-------------------|--------------------------|
------------|-------------------|--------------------------|



--2--2--2--2--2--2--------|--2--2--2--2--2--2--------|
--------------------2--4--|--------------------2--4--|
--------------------------|--------------------------|
--------------------------|--------------------------|



--2--2--2--2--2--2--------|--2--2--2--2--2--2--------|
--------------------2--4--|--------------------2--4--|
--------------------------|--------------------------|
--------------------------|--------------------------|



--2--2--2--2--2--2--------|--2--2--2--2--2--2--------|
--------------------2--4--|--------------------2--4--|
--------------------------|--------------------------|
--------------------------|--------------------------|



--2--2--2--2--2--2--------|--2--2--2--2--2--2--------|
--------------------2--4--|--------------------2--4--|
--------------------------|--------------------------|
--------------------------|--------------------------|



--2--2--2--2--2--2--------|--2--2--2--2--2--2--------|
--------------------2--4--|--------------------2--4--|
--------------------------|--------------------------|
--------------------------|--------------------------|



--2--2--2--2--2--2--------|--2--2--2--2--2--2--------|
--------------------2--4--|--------------------2--4--|
--------------------------|--------------------------|
--------------------------|--------------------------|



--2--2--2--2--2--2--------|--2--2--2--2--2--2--------|
--------------------2--4--|--------------------2--4--|
--------------------------|--------------------------|
--------------------------|--------------------------|



--2--2--2--2--2--2--------|--2--2--2--2--2--2--------|
--------------------2--4--|--------------------2--4--|
--------------------------|--------------------------|
--------------------------|--------------------------|



--2--2--2--2--2--2--------|--2--2--2--2--2--2--------|
--------------------2--4--|--------------------2--4--|
--------------------------|--------------------------|
--------------------------|--------------------------|



--0--0--0--0--0--0--1--2--|------2----2--3--4--6--|------6----6--5--4--2--|
--------------------------|-----------------------|-----------------------|
--------------------------|-----------------------|-----------------------|
--------------------------|-----------------------|-----------------------|



------2----2--3--4--6--|------6----6--5--4--2--|------2----2--0-----0--|
-----------------------|-----------------------|-----------------2-----|
-----------------------|-----------------------|-----------------------|
-----------------------|-----------------------|-----------------------|



------------0--------0--|------------0--------0--|------------0-----0--0--|
------2--2-----2--2-----|------2--2-----2--2-----|------2--2-----2--------|
------------------------|------------------------|------------------------|
------------------------|------------------------|------------------------|



------------0----0----|--2--2--2--2--2--2--------|--2--2--2--2--2--2--------|
------2--2------------|--------------------2--4--|--------------------2--4--|
----------------------|--------------------------|--------------------------|
----------------------|--------------------------|--------------------------|



--2--2--2--2--2--2--------|--2--2--2--2--2--2--------|
--------------------2--4--|--------------------2--4--|
--------------------------|--------------------------|
--------------------------|--------------------------|



--2--2--2--2--2--2--------|--2--2--2--2--2--2--------|
--------------------2--4--|--------------------2--4--|
--------------------------|--------------------------|
--------------------------|--------------------------|



--2--2--2--2--2--2--------|--2--2--2--2--2--2--------|
--------------------2--4--|--------------------2--4--|
--------------------------|--------------------------|
--------------------------|--------------------------|



--2--2--2--2--2--2--------|--2--2--2--2--2--2--------|
--------------------2--4--|--------------------2--4--|
--------------------------|--------------------------|
--------------------------|--------------------------|



--2--2--2--2--2--2--------|--2--2--2--2--2--2--------|
--------------------2--4--|--------------------2--4--|
--------------------------|--------------------------|
--------------------------|--------------------------|



--2--2--2--2--2--2--------|--2--2--2--2--2--2--------|
--------------------2--4--|--------------------2--4--|
--------------------------|--------------------------|
--------------------------|--------------------------|



--2--2--2--2--2--2--------|--2--2--2--2--2--2--------|
--------------------2--4--|--------------------2--4--|
--------------------------|--------------------------|
--------------------------|--------------------------|



--2--2--2--2--2--2--------|--2--2--2--2--2--2--------|
--------------------2--4--|--------------------2--4--|
--------------------------|--------------------------|
--------------------------|--------------------------|



--2--2--2--2--2--2--------|--0--0--0--0--0--0--1--2--|
--------------------2--4--|--------------------------|
--------------------------|--------------------------|
--------------------------|--------------------------|



--0--0--0--0--0--0--1--2--|--2--2--1--1--0--0--------|-----7--5----------------|
--------------------------|--------------------4--4--|--3--------6--7--7----7--|
--------------------------|--------------------------|-------------------------|
--------------------------|--------------------------|-------------------------|



--------------------------|-----7--5----------------|--------------------------|
--7--7--6--6--5--5--4--4--|--3--------6--7--7----7--|--7--7--6--6--5--5--4--4--|
--------------------------|-------------------------|--------------------------|
--------------------------|-------------------------|--------------------------|



-----7--5----------------|--------------------------|-----7--5----------------|
--3--------6--7--7----7--|--7--7--6--6--5--5--4--4--|--3--------6--7--7----7--|
-------------------------|--------------------------|-------------------------|
-------------------------|--------------------------|-------------------------|



--------------------|--------------------|--------------------|
--7-7---------------|--7-7---------------|--7-7---------------|
--------------------|--------------------|--------------------|
--------------------|--------------------|--------------------|



--------------------|----7-------7---------|----7-------7---------|
--7-7---------------|--------7-------7-----|--------7-------7-----|
--------------------|----------------------|----------------------|
--------------------|----------------------|----------------------|



----7-------7---------|----7-------|--5----------------|
--------7-------7-----|--------7---|-------------------|
----------------------|------------|-------------------|
----------------------|------------|-------------------|



--2--2--2--2--2--2--------|--2--2--2--2--2--2--------|
--------------------2--4--|--------------------2--4--|
--------------------------|--------------------------|
--------------------------|--------------------------|



--2--2--2--2--2--2--------|--2--2--2--2--2--2--------|
--------------------2--4--|--------------------2--4--|
--------------------------|--------------------------|
--------------------------|--------------------------|



--2--2--2--2--2--2--------|--2--2--2--2--2--2--------|
--------------------2--4--|--------------------2--4--|
--------------------------|--------------------------|
--------------------------|--------------------------|



--2--2--2--2--2--2--------|--2--2--2--2--2--2--------|
--------------------2--4--|--------------------2--4--|
--------------------------|--------------------------|
--------------------------|--------------------------|



--2--2--2--2--2--2--------|--2--2--2--2--2--2--------|
--------------------2--4--|--------------------2--4--|
--------------------------|--------------------------|
--------------------------|--------------------------|



--2--2--2--2--2--2--------|--2--2--2--2--2--2--------|------------------|
--------------------2--4--|--------------------2--4--|------------------|
--------------------------|--------------------------|------------------|
--------------------------|--------------------------|------------------|



------------------|------------------|--2--2--1--1--0--0--------|
------------------|------------------|--------------------4--4--|
------------------|------------------|--------------------------|
------------------|------------------|--------------------------|



-----7--5----------------|--------------------------|-----7--5----------------|
--3--------6--7--7----7--|--7--7--6--6--5--5--4--4--|--3--------6--7--7----7--|
-------------------------|--------------------------|-------------------------|
-------------------------|--------------------------|-------------------------|



--------------------------|-----7--5----------------|--------------------------|
--7--7--6--6--5--5--4--4--|--3--------6--7--7----7--|--7--7--6--6--5--5--4--4--|
--------------------------|-------------------------|--------------------------|
--------------------------|-------------------------|--------------------------|



-----7--5----------------|--------------------|--------------------|
--3--------6--7--7----7--|--7-7---------------|--7-7---------------|
-------------------------|--------------------|--------------------|
-------------------------|--------------------|--------------------|



--------------------|--------------------|----7-------7---------|
--7-7---------------|--7-7---------------|--------7-------7-----|
--------------------|--------------------|----------------------|
--------------------|--------------------|----------------------|



----7-------7---------|----7-------7---------|----7-------7---------|
--------7-------7-----|--------7-------7-----|--------7-------7-----|
----------------------|----------------------|----------------------|
----------------------|----------------------|----------------------|



----7-------7---------|----7-------7---------|----7-------7---------|
--------7-------7-----|--------7-------7-----|--------7-------7-----|
----------------------|----------------------|----------------------|
----------------------|----------------------|----------------------|



----7-------|--5----------------|------------------|------------------|
--------7---|-------------------|------------------|------------------|
------------|-------------------|------------------|------------------|
------------|-------------------|------------------|------------------|



------------------|------------------|------------------|------------------|
------------------|------------------|------------------|------------------|
------------------|------------------|------------------|------------------|
------------------|------------------|------------------|------------------|



------------------|------------------|------------------|------------------|
------------------|------------------|------------------|------------------|
------------------|------------------|------------------|------------------|
------------------|------------------|------------------|------------------|



------------------|------------------|------------------|------------------|
------------------|------------------|------------------|------------------|
------------------|------------------|------------------|------------------|
------------------|------------------|------------------|------------------|



------------------|------------------|------------------|------------------|
------------------|------------------|------------------|------------------|
------------------|------------------|------------------|------------------|
------------------|------------------|------------------|------------------|



------------------|------------------|------------------|------------------|
------------------|------------------|------------------|------------------|
------------------|------------------|------------------|------------------|
------------------|------------------|------------------|------------------|



------------------|------------------|-------------------|-------------------|
------------------|------------------|--2----------------|----------0--------|
------------------|------------------|-------------------|-------------------|
------------------|------------------|-------------------|-------------------|



-------------------|------------------|-------------------|-------------------|
-------------------|------------------|--2----------------|----------0--------|
--3----------------|------------------|-------------------|-------------------|
-------------------|------------------|-------------------|-------------------|



-------------------|------------------|-------------------|-------------------|
-------------------|------------------|--2----------------|----------0--------|
--3----------------|------------------|-------------------|-------------------|
-------------------|------------------|-------------------|-------------------|



-------------------|------------------|-------------------|-------------------|
-------------------|------------------|--2----------------|----------0--------|
--3----------------|------------------|-------------------|-------------------|
-------------------|------------------|-------------------|-------------------|



-------------------|------------------|-------------------|-------------------|
-------------------|------------------|--2----------------|----------0--------|
--3----------------|------------------|-------------------|-------------------|
-------------------|------------------|-------------------|-------------------|



-------------------|------------------|-------------------|-------------------|
-------------------|------------------|--2----------------|----------0--------|
--3----------------|------------------|-------------------|-------------------|
-------------------|------------------|-------------------|-------------------|



-------------------|------------------|-------------------|-------------------|
-------------------|------------------|--2----------------|----------0--------|
--3----------------|------------------|-------------------|-------------------|
-------------------|------------------|-------------------|-------------------|



-------------------|------------------|-------------------|-------------------|
-------------------|------------------|--2----------------|----------0--------|
--3----------------|------------------|-------------------|-------------------|
-------------------|------------------|-------------------|-------------------|



-------------------|------------------|-------------------|-------------------|
-------------------|------------------|--2----------------|----------0--------|
--3----------------|------------------|-------------------|-------------------|
-------------------|------------------|-------------------|-------------------|



-------------------|------------------||
-------------------|------------------||
--3----------------|------------------||
-------------------|------------------||
  development and support by
dmitry ivanov