rock
 
|tablatures   |lyrics   |discussion forums   |more tabs @ XGuitar.com

Guns N Roses tabs

Live And Let Die bass tab

From: DUFF MCK 
Artist:	GUNS'N'ROSES
Album:	USE YOUR ILLUSION 1
Song:	LIVE AND LET DIE

bass tab

              GUITAR INTRO 

    G-------------------------------------------
    D-------------------------------------------
    A-----3--5-------3--5-----------------------
    E--3----------3-----------------------------

    G-0-1-2------------0-1-2-------5-3----------
    D-------0-1-2------------0-1-2--------------
    A--------------3-1--------------------------
    E-------------------------------------------

    G-------------------------------------------
    D-------------------------------------------
    A-------------------------------------------
    E--3-3-3-3-3-3-3-3-3-3-3-3------------------

    G--------------------------------------------------------------
    D--------------------------------------------------------------
    A-3-3-3-3-3-3-3-3-----------------5-5-5-5-5-5-5-5-5--7-77-8----
    E-----------------3-3-3-3-3-3-3-3------------------------------



     THEN REPEAT THE FIRST 2 BARS AGAIN
  development and support by
dmitry ivanov