rock
 
|tablatures   |lyrics   |discussion forums   |more tabs @ XGuitar.com

Guns N Roses tabs

Knockin' On Heaven's Door bass tab

From: DUFF MCK 
Artist:	GUNS'N;ROSES
Album:	USE YOUR ILLUSION 2
Song:	KNOCKIN ON HEAVENS DOOR

bass tab

           GUITAR INTRO

CHORUS  G----------------------------------------------------------------
        D----------------------------------------------------------------
        A--------5-55--3-33--0-0-0-0-0-0-0-0--------5-55--3-33--0--------
        E--3-33-------------------------------3-33-----------------------


VERSE   G----------------------------------------------------------------
        D----------------------------------------------------------------
        A------5--0-----5--3--0-----5--0-----5--3--0---------------------
        E---3--------3-----------3--------3------------------------------

SOLO    G----------------------------------------------------------------
        D----------------------------------------------------------------
        A------55--33--0000------55--33--0000------55--33--12-12-12-12---
        E--33----------------33----------------33------------------------
  development and support by
dmitry ivanov