rock
 
|tablatures   |lyrics   |discussion forums   |more tabs @ XGuitar.com

Guns N Roses tabs

Garden Of Eden guitar tab

Garden of Eden
Guns N Roses
Use Your Illusion I

Intro:
|----x----------------------------------------5--------------------------|
|----x----------------------------------------5--------------------------|
|----x-------------------------------------------------------------------|
|--------x/-----------------------------------------------2--2-----------|
|--------x/----------2-------5-----2--(2)----------5/6----2--2-----------|
|-------------17\----0--0-0--3--0--0--(0)--0-------3/4----0--0--0-0-0----|

|------------------------------------------------------------------------|
|------------------2-----------------------------------------------------|
|---------------0--2-------------------------------2---------------------|
|---5/6-----2---0--2----------2---------5-----2----2--------2------5---2-|
|---5/6-----2-----------------2---------5-----2-------------2------5---2-|
|---3/4--0--0----------3-3-0--0-----0-0-3---0-0--0-------3--0--0-0-3-0-0-|

Verse:       You Got a...
|------------------------------------------------------------------------|
|------2-----------------------------------------------------------------|
|------2-------------Fig 1-----------------------------------------------|
|---------------2-----------------5------2-----7----5/6---2--------------|
|---------------2-----------------5------2-----7----5/6---2--------------|
|---0--------3--0-----------0--0--3---0--0--0--5----3/4---0--------------|

Play fig 1 another 2.5 times and then

   Watch'em come in off the...
|------------------------------------------------------------------------|
|------------------------------------------------------------------------|
|------------------------------------------------------------------------|
|----------(2)-----7-----------------------------------------------------|
|----------(2)-----7----------------1h2--------3h4--3--1/2----------1h2--|
|----------(0)--0--5----3-0-3---3-3-------3-3---------------3--3--3------|

|------------------------------------------------------------------------|
|------------------------------------------------------------------------|
|------------------------------------------------------------------------|
|------------------------------------------------------------------------|
|--------3h4--3--1/2------------1h2--------3h4---3--1/2------------1h2---|
|--3--3----------------3---3--3------3--3----------------3----3--3-------|

|------------------------------------------------------------------------|
|------------------------------------------------------------------------|
|------------------------------------------------------------------------|
|------------------------5---3-------------------------------------------|
|----------3h4--3--1/2-----------5--3--1--3--1-----------------5--3--1-3-|
|---3--3----------------------------------------3--1--0--3--1------------|

                                  end of verse

|------------------------------------------------------------------------|
|------------------------------------------------------------------------|
|------------------------------------------------------------------------|
|---------------5---3---5p3-------------------------3-----5p3-------5----|
|--1------------5---3---5p3-----5-------------------3-----5p3------------|
|-----3--1--2---3---3-3------3-----------------3--3----3---------3-------|

|------------------------------------------------------------------------|
|------------------------------------------------------------------------|
|--------------------------------3---------------------------------------|
|--------3------5p3----5---------3----5p3------5--------3--5p3-------5---|
|--------3------5p3-------------------5p3---------------3--5p3-----------|
|---3--3-----3-------3-----3--3-------------3-----3--3------------3------|

|------------------------------------------------------------------------|
|------------------------------------------------------------------------|
|------------------------------------------------------------------------|
|---------3-----5p3-----5--------3------5p3-------5--5--5--4--2--2-------|
|---------3-----5p3--------------3------5p3-------5--5--5--4--3--2-------|
|---3--3-----3-------3------3--3-----3--------3---3--3--3--2--1--0-------|

Verse 2,  Verse 3  the same






Pre Chorus
|------------------------------------------------------------------------|
|------------------------------------------------------------------------|
|---2----2------------------------------------2-------------2----------5-|
|---2----2------------2---2---2---------------2---------2---2----------5-|
|---0----0----3p0--0--3---3---0---3p0--0--3---0---3p0-0-3---0---3p0-0--3-|
|------------------------------------------------------------------------|

|------------------------------------------------------------------------|
|------------------------------------------------------------------------|
|---2--------------------------------------------------------------------|
|---2----------------7--6--5---------------------------------------------|
|---0---3p0--0--0-------------3------------------------------------------|
|--------------------------------0---1--2--------------------------------|

Chorus:
|------------------------------------------------------------------------|
|------------------------------------------------------------------------|
|------------------------------------------------------------------------|
|-------5---3--5----3h5---5--3--5---5----5---3--5---5---5---x--x--x--5---|
|-------5---3--5----3h5---5--3--5---5----5---3--5---5---5---x--x--x--5---|
|---3---3-----------3h5---3---------3----3----------3---3------------3---|

|------------------------------------------------------------------------|
|------------------------------------------------------------------------|
|------------------------------------------------------------------------|
|--5----x--5---5---3--5--5-----5--3--5--5----------5--3------------------|
|--5----x--5---5---3--5--5-----5--3--5--5---------------5--3--1--3-------|
|--3-------3---3---------3-----3--------3--------------------------------|

|------------------------------------------------------------------------|
|------------------------------------------------------------------------|
|------------------------------------------------------------------------|
|---------------------------------------------------5--------------------|
|---1------------------5--3--1--3----1--------------5--------------------|
|------3--1--0--3--1----------------------3--1--2---3--------------------|

Bridge:    Suck on that...
|------------------------------------------------------------------------|
|------------------------------------------------------------------------|
|------------------------------------------------------------------------|
|---5--3--5--x--5-----5--3--5-3--4--5---5---3--5---5----x--x--x---5------|
|---5--3--5--x--5-----5--3--5-3--4--5---5---3--5---5----x--x--x---5------|
|---3-----------3-----3-------------3---3----------3--------------3------|

|------------------------------------------------------------------------|
|------------------------------------------------------------------------|
|------------------------------------------------------------------------|
|--5---x--x--x--5---5---x--5---3h5--5--5--3--5--3--5---5---5--5---2--2---|
|--5---x--x--x--5---5---x--5---3h5--5--5--3--5--3--5---5---5--5---2--2---|
|--3------------3---3------3--------3--3---------------3---3--3---0--0---|

Guitar Solo:
|---------------------------------5------5-------------------5-----------|
|------------------------------------7h8----8p7p5--8p7p5-7h8----8p7p5----|
|----------------5h6-------5--7h8----------------------------------------|
|----------7--7------5--7------------------------------------------------|
|--17\7------------------------------------------------------------------|
|------------------------------------------------------------------------|

|-----------------------------------------12-----------------------------|
|--------5-----------5--5----10----10--10----13------10----8-------------|
|---7h8-----8p7p5-7-----5--0----------------------------------9--7h8-----|
|------------------------------------------------------------------------|
|------------------------------------------------------------------------|
|------------------------------------------------------------------------|

|------------------------------------------------------------------------|
|------------------------------------------------------------------------|
|---9--7h8h9--7h8h9--7h8h9--7h8h9--7h8h9----7h8h9--7--9--5---------------|
|------------------------------------------------------------------------|
|------------------------------------------------------------------------|
|------------------------------------------------------------------------|

|------------------------------(14)-----14-------------------------------|
|----------------------14--17b------17-----15----------------------------|
|----16--16-------(16)---------------------------16---14----16----14-----|
|--------------------------------------------------------16----16-----16-|
|------------------------------------------------------------------------|
|------------------------------------------------------------------------|

|------------------------------------------------------------------------|
|---------------22-----19-22---19----22----19--22p19-----19-----18-19-17-|
|---------------------------------21----21------------21-----21----------|
|---15--14\12------------------------------------------------------------|
|------------------------------------------------------------------------|
|------------------------------------------------------------------------|

|-----------------------------------------15-----------------------------|
|----------15----15----------------------------18b-----------------------|
|----19-17----18----18h19p18---17--14--16--------------------------------|
|------------------------------------------------------------------------|
|------------------------------------------------------------------------|
|------------------------------------------------------------------------|

Verse 4  same as the first



Chorus



|------------------------------------------------------------------------|
|-----------------------------------------------11h12--------------------|
|----------3h4------5--6--5--3--4---/12---x--x--------12--12-------------|
|----5--5------5--5-------------------------------------------10--11--10-|
|------------------------------------------------------------------------|
|------------------------------------------------------------------------|



|------------------------------------------------------------------------|
|------------------------------------------------------------------------|
|-----------------------------------------------------------------15h16--|
|----8--9--------------8h9----------10-11-10--8--9--17----17--17---------|
|----------10----x--x-------10--10---------------------------------------|
|------------------------------------------------------------------------|



|------------------------------------------------------------------------|
|------------------------------18b---18---------18-----------------------|
|-----------17--18--17--15--16------------17b-------17----17--15--12-----|
|---17--17---------------------------------------------------------------|
|------------------------------------------------------------------------|
|------------------------------------------------------------------------|



|------------------------------------------------------------------------|
|------------------------------------------------------------------------|
|----10------------------------------------------------------------------|
|----------10b-p8--10---8------------------------------------------------|
|--------------------------10-8--8--10--(10)-----------------------------|
|------------------------------------------------------------------------|


  development and support by
dmitry ivanov