rock
 
|tablatures   |lyrics   |discussion forums   |more tabs @ XGuitar.com

Guns N Roses tabs

Estranged bass tab

GUNS N' ROSES - Estranged from "Use Your Illusion II"

G|------------------------------------------------|
D|------------------------------------------------|
A|--------------------------2-2-0-2-2-0-2-2-0-2-2-|
E|-2-2-0-2-2-0-2-2-0-2-2-0-2----------------------|

G|--------------------------------------------------------------------|
D|--------------------------------------------------------------------|
A|-0000000022222224-------------------------0000000022222224----------|
E|-----------------2-2-0-2-2-0-2-2-0-2-2-0-2-----------------2-2-0-2--|

G|---------------------------------------------------------------------|
D|---------------------------------------------------------------------|
A|----4-4------2-2---4-4--0-0-2-2-----22220000------------22220000-----|
E|-2-2----4-4-----2-2-------------2222--------444444402222--------4444-|

G|-----------------------------------------------------|
D|-------------------------------------------------0-2-|
A|-----------------------------------------------------|
E|-000000002220220200000000222022020000000022222222----|

G|-----------------------------------------|
D|--0---0--0-0----0--0-0-------------------|
A|-2--2---------2--------2-0-0-0-0-0-0-0-0-|
E|------------2---------2------------------|

G|----------------------------------------------------|
D|----------------------------------------------------|
A|---------22222222-------00000-0-0-2-0-0-2-0-0-2-2-2-|
E|-00000000--------2222222----------------------------|

G|------------------------------------------------------------|
D|------------------------------------------------------------|
A|---------22222222--------------22222222---------------------|
E|-00000000--------22222200000000--------22222222000000000000-|

G|----------------------------------------------------------------------|
D|----------------------------------------------------------------------|
A|-22-----------------2-2-2-2-2-4-4-4-4-4-2-2-2-2-0-2-2-2-2-2-4-4-(2-2)-|
E|---2-2-2-2-0-0-0-0-0--------------------------------------------------|

G|------------------------------------------------------|
D|------------------------------------------------------|
A|-2-2-2-2------------------2-2-2-2---------------------|
E|--------444422220000000000-------22220000000000000000-|

G|-----------------------------------------------------------------------------|
D|---------------------------------------------------------2-2-1---------------|
A|--------------------------------------------------------------4-4-20-0---2>>-|
E|-44442222000-2-4-0-0-0-2-44442222000-2-4-0-0-0-2-44442222-------------4-2----|

G|------------------------------------------------------------------|
D|------------------------------------------------------------------|
A|-22222222----------------2222----22222222-------------------------|
E|---------2222222200000000----2222--------222222220000000000000000-|

G|------------------4-1-------------------------------------|-4-1-------|
D|---------------------4-1----------------------------------|----4-1-2--|
A|-2-2-0-0-2-2-0-0--------2-2-1-----------------------------|---------2-|
E|-----------------------------4444222200024000244442222000-|-----------|
  development and support by
dmitry ivanov