rock
 
|tablatures   |lyrics   |discussion forums   |more tabs @ XGuitar.com

Guns N Roses tabs

Dead Horse bass tab

From: DUFF MCK 
Artist:	GUNS'N'ROSES
Album:	USE YOUR ILUSION 1
Song:	DEAD HORSE

bass tabs

CHORUS : G-----------------------------------------------------------
         D-----------------------------------------------------------
         A-----------------------------------------------------------
         E-5-5-5-5-5-5--0-0-0-0-0-0--5-5-5-5-5-5--0-0-0-0-0-0--------
         
         CHECK THE SONG 2 FIND OUT HOW MANY TIMES 2 PLAY THIS
          
         ON THE LAST RIP PLAY THIS:

         G----------------------------------------------------------
         D----------------------------------------------------------
         A----------------------------------------------------------
         E-5-5-5-5-5-5--0-0-0-0-0-0--2-2-2-2-2-2-2-2-2--4-5---------


VERSE :  G----------------------------------------------------------
         D----------------------------------------------------------
         A-----------2-2-2-2-2--------------------------------------
         E-5-5-5-5-5-----------4-4-4-4-4--5-5-5-5-4-5-5-5-5-5-------

         G----------------------------------------------------------
         D----------------------------------------------------------
         A-----------2-2-2-2-2--------------------------------------
         E-5-5-5-5-5-----------0-0-55-5-0--2233445-5-5-5-5-5--------


SOLO :   G----------------------------------------------------------
         D----------------------------------------------------------
         A--4-----4-----4-----4-------------------------------------
         E-----2-----2-----2-----5--7-7-7-7-7-7-7-7-----------------


PLAY IN THIS ORDER : CHORUS
                     VERSE
                     SOLO
                     CHORUS
  development and support by
dmitry ivanov