rock
 
|tablatures   |lyrics   |discussion forums   |more tabs @ XGuitar.com

Guns N Roses tabs

Bad Apples guitar tab

Bad Apples
Guns n' Roses
Use Your Illusion I

Tabbed by:     JizzDaPit

I have put lyrics over the tabs just for a reference on where you are on
the song. They are not the complete lyrics, they are just reference points.

 Intro (Gtr 1)
|--------------------------------------------------------------------------|
|--------------------------------------------------------------------------|
|------------------12---12-12-----12----12----12-(12)-----12----------7----|
|------------------12---12-12-----12----12----12-(12)-----12----------7----|
|--------------------------------------------------------------------------|
|--x--x--19\----0--------------------------------------0------/9--7------0-|

|--------------------------------------------------------------------------------------|
|--------------------------------------------------------------------------------------|
|----------12-----------7---------------12-------------7-----------------12----------7-|
|----------12-----------7---------------12-------------7-----------------12----------7-|
|--------------------------------------------------------------------------------------|
|--(0)--0-------/9--7------------0---0---------/9--7---------0--(0)---0------/9---7----|

|--------------------------------------------------------------------------------------|
|--------------------------------------------------------------------9--(9)\-----------|
|--------12-----------7-------------12---------7--------12-----9--9--9--(9)\-----------|
|--------12-----------7-------------12---------7--------12-----9--9--9--(9)\-----------|
|--------------------------------------------------------------------------------------|
|--0--0-------/9---7-----0--(0)--0------/9--7-----0--0---------------------------------|

 Verse (Riff 1)
|------------------------------------------------------------------|
|------------------------------------------------------------------|
|------------------------------------------------------------------|
|------------------------------------------------------------------|
|---0---3qb-----------------------0--0--0--3qb---------------------|
|-----------------------2---0--3---------------------2---0---3---4-|
          Diamonds and fast cars         money to burn  I got my

Play riff 1 three times, but on the last time cut off the three and start on below

 (Riff 2) 3x
|------------------------------------------------------------------------------------------------|
|------------------------------------------------------------------------------------------------|
|------------------------------------------------------------------------------------------------|
|-------------------------------------------------------------------2------------------------2---|
|---0------3qb-------------------0----0--0--3qb---------------5---4------------------------5---4-|
|--------------------2---0---3-----------------------2--0--0-----------3hb-----0--0--3--0--------|
     headache like a mother twice the price....

 Chorus: (Rhy. fig 3) 2x
|------------------------------------------------------------------------------------------------|
|------------------------------------------------------------------------------------------------|
|------------------------------------------------------------------------------------------------|
|----0----2---0----2---3--4---------------------------------------------------------------------0|
|----------------------------0--(0)--0--2--0--2--3--4---------------------------2-----2----------|
|------------------------------------------------------0--(0)-0--2--0--2--3--4-----4----4-3-2-0--|
     shit hit the fan
                                                                           (end of Rhy. fig 3)
|---------------------------------------------------------------------------------------------|
|---------------------------------------------------------------------------------------------|
|---------------------------------------------------------------------------------------------|
|-(0)----0--2--0--2--3--4-------------------------------------------------------------------0-|
|--------------------------0--(0)--0--2--0--2--3--4------------------------2---2--------------|
|---------------------------------------------------0-(0)-0--2--0--2--3--4---4---4-3-2-0------|

|---------------------------------------------------------------------------------------------|
|-----------------------------------------------------------------------------4hb----2--------|
|-----------------------------------------------------------------------------4hb----2--------|
|(0)--0--2--0--2--3--4------------------------------------------------------------------------|
|-----------------------0--0--0--2--0--2--3--4--0--2--2--2--2--2--2--2--2--2------------------|
|---------------------------------------------------------------------------------------------|
        to me id say just leave me be    why let  one  bad apple spoil the whole damn bunch

 Play this with intro riff:
|------------------------------------------------------------------------------------------------|
|-------17~-------------------------17~--------------------17~---------------------17~-----------|
|-------17~-------------------------17~--------------------17~---------------------17~---16\14-17|
|---19---------16/14--17--19-19-19---------16\14--17---19-------16\14-17--19-19-19---------------|
|------------------------------------------------------------------------------------------------|
|------------------------------------------------------------------------------------------------|

|---------------------------------------------------------------------------------------------|
|---------------------------------------------------------------------------------------------|
|---------------------------------------------------------------------------------------------|
|---------------------------------------------------------------------------------------------|
|------19~~~--------19------------------------------------------------------------------------|
|---------------------------------------------------------------------------------------------|
      and           caviar         now whyntyou pour my apathy  i'd have all my basses covered

Start playing riff 2 when axl sings: "down in the deep end..."

 Play chorus and then go to:
|---------------------------------------------------------------------------|
|---------------------------------------------------------------------------|
|---------------------------------------------------------------------------|
|--------------------------------------------------------2-------2----------|
|-----2--5--4--3--2--5--4--3--2--1--0-----0-------------------------4/5-----|
|--------------------------------------3-----3--2--1--0-------0----------0--|
      pm----------------------------------------------|

|------------------------------------------------------------------|
|-1\2---3\4------------------------1\2---3\4-----------------------|
|-1\2---3\4------------------------1\2---3\4-----------------------|
|-1\2---3\4---------------2--------1\2---3\4------2-----2----------|
|------------------2--------4\5---------------------------4\5------|
|------------0--------3-0-------0-------------0-----3-0--------0---|

 Guitar solo	
|---------------------------------------------------------------------------|
|--------------------------------------------18b------------18--15-12-------|
|---------------------------------------------------------------------------|
|---------------------------------------------------------------------------|
|---------------------------------------------------------------------------|
|---------------------------------------------------------------------------|

|------------------------------------------------------------------------------------------------17b-|
|-18b*---15-17-18-17-18-17-15--18-17-18-17-15--18-17-18-15--18-17-18-17-15--18-17-18-17-15--15-15----|
|----------------------------17--------------17-----------17--------------17--------------17---------|
|*-two-----------------------------------------------------------------------------------------------|
|steps-----------------------------------------------------------------------------------------------|
|bend!-----------------------------------------------------------------------------------------------|

|--17------17---16--17---16hb----------------------------------12---------------15--15-----------|
|----------------------------------17--15---15----15--15fb--15-----15--12--15fb---15--15--12--15-|
|------------------------------------------------------------------------------------------------|
|------------------------------------------------------------------------------------------------|
|------------------------------------------------------------------------------------------------|
|------------------------------------------------------------------------------------------------|

|-------------------------------------------------------------------------15-15---------15-----------15-|
|---------15------------------------------------------------15---------------15------15-15---15------15-|
|-14fb--14--14fb--14-12-14-12-----12-12-12-12-14-12-14fb--14--14-14-12---------14fb-------14-14fb----14-|
|----------------------------14-12--x----------------------------------14-------------------------------|
|-------------------------------------------------------------------------------------------------------|
|-------------------------------------------------------------------------------------------------------|

|-----------------------------------------------15-15-------------------20fb--20-20----19fb--|
|---------------------------------------------15-----18fb---------17-17----------------------|
|-14--12--14-12-----------15--17--15\16--15-16-------------17hb------17----------------------|
|-------14-----14-12-14\17--17--17-----17----------------------------------------------------|
|--------------------------------------------------------------------------------------------|
|--------------------------------------------------------------------------------------------|

|-19--19-18-17-----------19------------------------------------------12-------------------------------------------------------|
|--------------20hb--------20hb-----20-17-20/19-17---19-17--------15---15-14-12-15-14-15-14-15-14-12--------------------------|
|--------------------------------------------------18-----18-16-18-----------------------------------13-12-16-14-12-14-12-11--|
|---------------------------------------------------------------------------------------------------------------------------0-|
|-----------------------------------------------------------------------------------------------------------------------------|
|-----------------------------------------------------------------------------------------------------------------------------|

|-----------------------------------------------------------------------------------------|
|-------------3-5-3-----8-10-8--------15-17-15---18-18-15---18-18-15--18-18-15--18-18-15--|
|--0--2-0-/4---------/9----------/16----------------------17--------17--------17--------17|
|-----------------------------------------------------------------------------------------|
|-----------------------------------------------------------------------------------------|
|-----------------------------------------------------------------------------------------|

|------------------------------------------------------------------------------------------------|
|--18-17-15--18-18-15--18-18-15--17hb----17-17-17-17hb---------17--------------------------------|
|----------17--------17--------17-----------------17hb------14---16hb-----14-16--14-14--14--16--x|
|------------------------------------------------------------------------------------------------|
|------------------------------------------------------------------------------------------------|
|------------------------------------------------------------------------------------------------|

|-14fb---14---14--14\------------------------------------------------------------------|
|-14fb---14---14--14\-----12--15qb-----12--15qb-----12--15qb-----12--15qb-------12--15-|
|----------------------/13--13------/13--13------/13--14------/13--13------11-13--13---|
|--------------------------------------------------------------------------------------|
|--------------------------------------------------------------------------------------|
|--------------------------------------------------------------------------------------|

|---------------------------------------------------------------------------|
|---------------------------------------------------------------------------|
|---------------------------------------------------------------------------|
|---------------------------------------------------------------------------|
|-------2-2-2-2-2----2--2--2-2-2-2-2-2-2-2-2-2-2-2-2-2-2-2-2-0--------------|
|---------------------------------------------------------------------------|
       whole damn  bunch

|---------------------------------------------------------------------------|
|------------------------------------------------------------12-------------|
|------------------------------------------------------------12-------------|
|------4hb---2-----------------------------------------------12-------------|
|-----------------4hb------2------2-----------------------------------------|
|-----------------------------4-------0-------------------------------------|
                                       boy!

/  = slide up    \  = slide down    tr = tremolo picking     qb = quarter bend
hb = half bend   fb = full bend     () = ghost note          ~  = vibrato
H  = harmonic    x  = muted note    PM = palm mute
  development and support by
dmitry ivanov