rock
 
|tablatures   |lyrics   |discussion forums   |more tabs @ XGuitar.com

Guns N Roses tabs

14 Years guitar tab

14 years
Guns N' Roses
Use your illusion II

Tabbed by:       Stephen Iggulden
                 dwigg@interlog.com



Pre-chorus:

A5                C              D
   you just don't step inside to, to fourteen years
A5                C              D
   so hard to keep my own head, that's what i said and you know
A5                C        D
   i've been the beg - gar   i've played the thief
A5                C  D
   i was the dog      they all tried to beat

Chorus:
              A5                 G5               D/A
but it's been fourteen years of silence it's been fourteen years
                  A5                      G5                   D/A
of pain it's been fourteen years that are gone forever and i'll    never

have again   well

  SOLO:	
|------------------------------------------------------------------|
|------------------------------------------------------------------|
|------------------------------------------------------------------|
|------------------------------------------------------------5h7-7-|
|---3--5fb-3-5fb-5fb-3-5fb-----3h5-5fb-3-5fb5-5fb5-5fb5-3p0--------|
|-5------------------------3h5-------------------------------------|

|---------------------------------------------8--------------|
|---------------------------8-8----------8/10---10-8-10-13fb-|
|-5fb------5-7fb-5--7-5-7fb-----r7p5-7-5---------------------|
|-----7~~----------------------------------------------------|
|------------------------------------------------------------|
|------------------------------------------------------------|

|--------------------------------------------------------------------|
|-15fb-15-13-15-r15-13-15-r15-13-15-r15-13-15-r15p13-13-15-r15p13-13-|
|--------------------------------------------------------------------|
|--------------------------------------------------------------------|
|--------------------------------------------------------------------|
|--------------------------------------------------------------------|

|------0------------------------------------------15--17-15--------------|
|-15fb---17b(1.5)-(17)~~~-17~~~-17b(1.5)--17~~~~~-----------17-r15-13-15-|
|------------------------------------------------------------------------|
|------------------------------------------------------------------------|
|------------------------------------------------------------------------|
|------------------------------------------------------------------------|

|-12----12--------------------------------------------------------|
|----15----13~~~~-------------------17-------17-------17-------17-|
|-----------------14-12-14~~~~-19fb-----19fb-----19fb-----19fb----|
|-----------------------------------------------------------------|
|-----------------------------------------------------------------|
|-----------------------------------------------------------------|

|-----------------------------19hb--17-15fb-15-15----------------------|
|-----------------------------19hb----------------17-15fbrp13-15-13-15-|
|-19fbrp17-19----17~~~~-19-17------------------------------------------|
|-------------19-------------------------------------------------------|
|----------------------------------------------------------------------|
|----------------------------------------------------------------------|

|-----------------------------------------------------------------|
|-----------------------------------------------------------------|
|-14-12-14~~~~-12-------------------------------------------------|
|-----------------14-12-10-12-10-12fb-10-12-10--------------------|
|----------------------------------------------12-10--------------|
|-----------------------------------------------------------------|
  development and support by
dmitry ivanov