rock
 
|tablatures   |lyrics   |discussion forums   |more tabs @ XGuitar.com

Green Day tabs

Worry Rock bass tab

Green Day-Worry Rock
Worry Rock

Verse
g-----------------------------------4444-4444-|
d-------------------------7777-7777-----------|
a-7-7-----------7777-7777---------------------|
e-----5555-5555-------------------------------|

g-------------------------------------------------------------|
d-------------------------------------------------------------|
a-------------------------------7777-7777-----------7777-7777-|
e-0000-0000-7777-7777-5555-5555-----------5555-5555-----------|

g-----------4444-4444-|
d-7777-7777-----------|
a---------------------|
e---------------------|

Chorus (part in parentheses not totally accurate)
g--------------(----------------------)------------|
d----1h21------(----------------------)----6h764---|
a-44------4-22-(---1h21--------4h542--)-77------76-|
e--------------(44-----4-22-55------54)------------|

g--------------(-----------)---------------------|
d----1h21------(-----------)-4444-4444-----------|
a-44------4-22-(---1h21----)-----------2222-2----|
e--------------(44-----4-22)---------------------|

From: SadButDru@aol.com
  development and support by
dmitry ivanov