rock
 
|tablatures   |lyrics   |discussion forums   |more tabs @ XGuitar.com

Green Day tabs

Words I Might Have Ate bass tab

song: Words I Might Have Ate 
band: Green Day 
album: Kerplunk 
tabbed by: Brady Newbill(bn85@bellsouth.net) 
tuning: Eb,Ab,Db,Gb 
intro 
G------------------------- 
D------------------------- 
A-00000----2-2-2--00000--- 
E-------33--3-3-3-------3- 

verse                                 2x 
G-------------------------------------------| 
D-------------------------------------------| 
A-00000------00000-00000-00000--------------| 
E-------33333-------------------33333-00000-| 

chorus 
G-------------------------------------------------- 
D-------------------------------------------------- 
A-55555-------------------55555/77777-00000-0000-0- 
E-------55555-33333-22222-------------------------- 

bridge("tell me..")4x           2x 
G-------------------|------------|----------- 
D-------------------|------------|----------- 
A-0/2-0xxx----------|-0----------|----------- 
E---------3333-0000-|--3333-0000-|-0-0000000- 

That should be it, just listen to the song for 
placement.
  development and support by
dmitry ivanov