rock
 
|tablatures   |lyrics   |discussion forums   |more tabs @ XGuitar.com

Green Day tabs

When I Come Around bass tab

Song: When I Come Around
Artist: Green Day
Album: Dookie

Intro
Gb------4h5p4--
Db--5-5--------
Ab-------------
Eb-------------

Verse (Let the last note ring)
Gb------5p4----------------4h5-------
Db--5-5---------4h5p4--2-2-----------
Ab----------5-5----------------3-3---
Eb-----------------------------------

Chorus
Gb---------------------------------------------------------------
Db---------------------------5/7-5-------------------------------
Ab---------------------------------7-----------------------------
Eb--5-5-5-5-5-5-7-8-8-8-8-8-----------5-5-5-5-5-5-7-8-8-8-8-8-8--


This tab was created by Christian Mangs. Email me at:
Shadow145@hotmail.com 
  development and support by
dmitry ivanov