rock
 
|tablatures   |lyrics   |discussion forums   |more tabs @ XGuitar.com

Green Day tabs

Westbound Sign bass tab

Song: Westbound Sign
Artist: Green Day
Album: Insomniac

Intro 		          X2
Gb-----|--------------------
Db-----|------2h4--------2--
Ab--2--|--2-2----------2----
Eb-----|-----------4-4------
(Let the first note ring...)

Verse
Gb---------------------------------------
Db--------2h4----------------------------
Ab--2-2-2--------------------------------
Eb------------2-2-2-2-4-4-4-4-0-0-0-0-0--

Chorus
Gb------------------
Db------4--------2--
Ab--2-2--------2----
Eb---------4-4------

Bridge				     X3
Gb-------------------------------------|-------------------------------
Db--------------------------2----------|-------------------------------
Ab----------0-0-0-0-----------2-2-2-2--|----------0-0-0-0--------------
Eb--2-2-2-2---------0-0-0-0------------|--2-2-2-2---------0-0-0-0-0-0--

Intro 		          X4
Gb-----|--------------------
Db-----|------2h4--------2--
Ab--2--|--2-2----------2----
Eb-----|-----------4-4------
(Let the first note ring...)

Intro X1
Verse X4
Chorus X4
Verse X4
Chorus X4
Bridge X1
Verse X4
Outro X1

This tab was created by Christian Mangs. Email me at:
Bassman9@users.basstabarchive.com
  development and support by
dmitry ivanov