rock
 
|tablatures   |lyrics   |discussion forums   |more tabs @ XGuitar.com

Green Day tabs

Walking Contradiction bass tab

Song:Walking Contradiction
Artist: Green Day
Album: Insomniac


Nice job to the guy who did the last tab but here's the COMPLETE TAB!
It includes all the little bass fills in the song that you hear. Make 
sure you tuned 1/2 step down and watch your timing with the fills.


Intro
Gb--------------------------------------------
Db-----------------7-7-7-7-7-7--7-7--5-4------
Ab---------------------------------------7-5--
Eb--5-5-5-5-5-5-5-----------------------------

Verse
Gb-------------------
Db-------------------
Ab-----5-5-----------
Eb--5-------3-3-5-5--

Fill
Gb----------------------------------------
Db-------------------------5-5-7-5h4------
Ab-----5-5-------------5-5-----------7-5--
Eb--5------3-3-5-5---5--------------------

Chorus		      X2
Gb----------------------|----------------|----------------------
Db---------------4h5h7--|----------------|----------------------
Ab--5-------------------|--5-------------|--5-------------------
Eb-----3-3-5-5-5--------|-----3-3-5-5-5--|-----3-3-5-5-5-5-5-5--


Intro X1
Verse X8
Fill X1
Verse X8
Chorus X1
Fill X1
Verse X8
Chorus X2
Fill X1
Verse X2


This tab was created by Christian Mangs. Email me at:
Shadow145@hotmail.com
  development and support by
dmitry ivanov