rock
 
|tablatures   |lyrics   |discussion forums   |more tabs @ XGuitar.com

Green Day tabs

Walking Alone bass tab

Song: Walking Alone
Group: Green Day
Album: Nimrod
Lyrics: Billie Joe Armstrong
Music: Green Day

Just follow the guitar chords.

Transcribed and Submitted by Jorge Gonzalez 
Any doubts or questions  ---> jw55@elsitio.com

Normal Tuning

INTRO
G|-------------------------------------|
D|-------------------------------------|
A|-------------------------------------|
E|-3-3-3-3-3-3-3-3---0-0-0-0-0-0-0-0---|

VERSE
G|--------------------------------------------------------------------|
D|--------------------------------------------------------------------|
A|-----------------------------------3-3-3-3-3-3-3-3--5-5-5-5-5-5-5-5-|    
E|-3-3-3-3-3-3-3-3--0-0-0-0-0-0-0-0-----------------------------------|


CHORUS
G|--------------------------------------------------------------------|
D|--------------------------------------------------------------------|
A|-3-3-3-3-3-3-3-3--5-5-5-5-5-5-5-5--3-3-3-3-3-3-3-3--5-5-5-5-5-5-5-5-|
E|--------------------------------------------------------------------|

G|-----------------------------------------------------------------|
D|-----------------------------------------------------------------|
A|-3-3-3-3-3-3-3-3--5-5-5-5-5-5-5-5--------------------------------|    
E|-----------------------------------3-3-3--1-1--0-0-0-0-0-0-0-0---|

G|-----------------------------------|
D|-----------------------------------|
A|-3-3-3-3-3-3-3-3--5-5-5-5-5-5-5-5--|
E|-----------------------------------|

END
G|-----------------------|
D|-----------------------|
A|-----------------------|
E|-3-3-3-3-3-3-3-3--(0)--|

Order:
INTRO 	X 2
VERSE 	X 2
CHORUS 	X 1
INTRO	x 2
VERSE	X 2
CHORUS	X 1
INTRO	X 2
VERSE	X 2
CHORUS	X 1
INTRO	X 3
END	X 1
  development and support by
dmitry ivanov