rock
 
|tablatures   |lyrics   |discussion forums   |more tabs @ XGuitar.com

Green Day tabs

Wake Me Up When September Ends guitar tab

Tab for "Wake Me Up When September Ends" by Green Day (Off of "American Idiot")
By Patriko 

Tuning: Standard EADGBE

  Key
  --------------------------------
   ~ : Ride the note
   / : Slide between the two notes

And remember, anytime you see two sections of tab touching via two pipes ("|"s),
that means that more than one guitar is playing.  Play the bottom of the grouped
tabs on top of the upper one.

|-------------------------------------------------------------------------------|
| Intro (Repeat 4x)                                                             |
|-------------------------------------------------------------------------------|
|
|  |---------------|
|  |------3-----3--|
|  |----0-----0----|
|  |--5-----5------|
|  |---------------|
|  |---------------|
|

|-------------------------------------------------------------------------------|
| Verse 1                                                                       |
|-------------------------------------------------------------------------------|
|
|  |------------------------------------------------------------------|
|  |------3-----3----------3-----3----------3-----3----------3-----3--|
|  |----0-----0----------0-----0----------0-----0----------0-----0----|
|  |--5-----5----------4-----4----------2-----2----------0-----0------|
|  |------------------------------------------------------------------|
|  |------------------------------------------------------------------|
|
|  |-------------------------------------|
|  |------5-----5----------4-----4-------|
|  |----5-5-5---5----5---5-5-5---5----5--|
|  |-------------------------------------|
|  |--3-------3--------3-------3---------|
|  |-------------------------------------|
|
|  |-----------------------------------|
|  |------3-----3----------3-----3-----|
|  |----0-0-0---0----0---0-0-0---0--0--|
|  |--5-------5--------5-------5-------|
|  |-----------------------------------|
|  |-----------------------------------|
|
|  |------------------------------------------------------------------|
|  |------3-----3----------3-----3----------3-----3----------3-----3--|
|  |----0-----0----------0-----0----------0-----0----------0-----0----|
|  |--5-----5----------4-----4----------2-----2----------0-----0------|
|  |------------------------------------------------------------------|
|  |------------------------------------------------------------------|
|
|  |-------------------------------------|
|  |------5-----5----------4-----4-------|
|  |----5-5-5---5----5---5-5-5---5----5--|
|  |-------------------------------------|
|  |--3-------3--------3-------3---------|
|  |-------------------------------------|
|
|  |------------------------------------|
|  |------3-----3----------3-------3-0--|
|  |----0-0-0---0----0---0-0-0---0-0----|
|  |--5-------5--------5-------4--------|
|  |------------------------------------|
|  |------------------------------------|
|


|-------------------------------------------------------------------------------|
| Chorus 1                                                                      |
|-------------------------------------------------------------------------------|
|
|  |----------------------------------------------------------------------|
|  |------3-----3----------3-----3----------5-----5----------3-------3-0--|
|  |----0-0-0---0----0---0-0-0---0----0---0-0-0---0----0---0-0-0---0-0----|
|  |--2-------2-----------------------------------------------------------|
|  |-------------------2-------2--------3-------3-------------------------|
|  |-----------------------------------------------------3-------2--------|
|
|  |----------------------------------------0-----0----------2-----2------|
|  |------0-----0----------3-----3----------0-----0----------3-----3------|
|  |----0-0-0---0----0---0-0-0---0----0---0-0-0---0----0---0-0-0---0---0--|
|  |--2-------2------------------------------------------0-------0--------|
|  |-------------------2-------2--------3-------3-------------------------|
|  |----------------------------------------------------------------------|
|

|-------------------------------------------------------------------------------|
| Verse 2                                                                       |
|-------------------------------------------------------------------------------|
|
|  |------------------------------------------------------------------|
|  |------3-----3----------3-----3----------3-----3----------3-----3--|
|  |----0-----0----------0-----0----------0-----0----------0-----0----|
|  |--5-----5----------4-----4----------2-----2----------0-----0------|
|  |------------------------------------------------------------------|
|  |------------------------------------------------------------------|
|
|  |-------------------------------------|
|  |------5-----5----------4-----4-------|
|  |----5-5-5---5----5---5-5-5---5----5--|
|  |-------------------------------------|
|  |--3-------3--------3-------3---------|
|  |-------------------------------------|
|
|  |-----------------------------------|
|  |------3-----3----------3-----3-----|
|  |----0-0-0---0----0---0-0-0---0--0--|
|  |--5-------5--------5-------5-------|
|  |-----------------------------------|
|  |-----------------------------------|

|-------------------------------------------------------------------------------|
| Interlude 1                                                                   |
|-------------------------------------------------------------------------------|
|
|  |------------------------------------------------------------------|
|  |------3-----3----------3-----3----------3-----3----------3-----3--|
|  |----0-----0----------0-----0----------0-----0----------0-----0----|
|  |--5-----5----------5-----5----------5-----5----------5-----5------|
|  |------------------------------------------------------------------|
|  |------------------------------------------------------------------|
|
|  |----------------------------------|
|  |------3-----3----------3-----3----|
|  |----0-----0----------0-----0------|
|  |--5-----5----------5-----5--------|
|  |----------------------------------|
|  |----------------------------------|
|  |                                  |
|  |-------------------------------3--|
|  |------3-----3----------3-----3----|
|  |----0-----0----------0-----0------|  <- Distorted
|  |--5-----5----------5-----5--------|     Guitar
|  |----------------------------------|
|  |----------------------------------|
|

|-------------------------------------------------------------------------------|
| Verse 3                                                                       |
|-------------------------------------------------------------------------------|
|
|  |------------------------------------------------------------------|
|  |------3-----3----------3-----3----------3-----3----------3-----3--|
|  |----0-----0----------0-----0----------0-----0----------0-----0----|
|  |--5-----5----------4-----4----------2-----2----------0-----0------|
|  |------------------------------------------------------------------|
|  |------------------------------------------------------------------|
|
|  |-------------------------------------------------------------------|
|  |------------------4-4-4-4-4-4-4-4----------------------------------|
|  |--5-5-5-5-5-5-5-5-5-5-5-5-5-5-5-5-4-4-4-4-4-4-4-4-4-4-4-4-4-4-4-4--|
|  |--5-5-5-5-5-5-5-5-5-5-5-5-5-5-5-5-5-5-5-5-5-5-5-5-5-5-5-5-5-5-5-5--|
|  |--3-3-3-3-3-3-3-3-3-3-3-3-3-3-3-3-5-5-5-5-5-5-5-5-5-5-5-5-5-5-5-5--|
|  |----------------------------------3-3-3-3-3-3-3-3-3-3-3-3-3-3-3-3--|
|
|  |------------------------------------------------------------------|
|  |------3-----3----------3-----3----------3-----3----------3-----3--|
|  |----0-----0----------0-----0----------0-----0----------0-----0----|
|  |--5-----5----------4-----4----------2-----2----------0-----0------|
|  |------------------------------------------------------------------|
|  |------------------------------------------------------------------|
|
|  |-------------------------------------------------------------------|
|  |------------------4-4-4-4-4-4-4-4----------------------------------|
|  |--5-5-5-5-5-5-5-5-5-5-5-5-5-5-5-5-4-4-4-4-4-4-4-4-4-4-4-4-4-4-4-4--|
|  |--5-5-5-5-5-5-5-5-5-5-5-5-5-5-5-5-5-5-5-5-5-5-5-5-5-5-5-5-5-5-5-5--|
|  |--3-3-3-3-3-3-3-3-3-3-3-3-3-3-3-3-5-5-5-5-5-5-5-5-5-5-5-5-5-5-5-5--|
|  |----------------------------------3-3-3-3-3-3-3-3-3-3-3-3-2-2-2-2--|
|

|-------------------------------------------------------------------------------|
| Chorus 2                                                                      |
|-------------------------------------------------------------------------------|
|
|  |-------------------------------------------------------------------|
|  |-------------------------------------------------------------------|
|  |------------------4-4-4-4-4-4-4-4-5-5-5-5-5-5-5-5------------------|
|  |--2-2-2-2-2-2-2-2-4-4-4-4-4-4-4-4-5-5-5-5-5-5-5-5-5-5-5-5-4-4-4-4--|
|  |--2-2-2-2-2-2-2-2-2-2-2-2-2-2-2-2-3-3-3-3-3-3-3-3-5-5-5-5-5-5-5-5--|
|  |--0-0-0-0-0-0-0-0---------------------------------3-3-3-3-2-2-2-2--|
|
|  |-------------------------------------------------------------------|
|  |-------------------------------------------------------------------|
|  |------------------4-4-4-4-4-4-4-4-5-5-5-5-5-5-5-5-7-7-7-7-7-7-7-7--|
|  |--2-2-2-2-2-2-2-2-4-4-4-4-4-4-4-4-5-5-5-5-5-5-5-5-7-7-7-7-7-7-7-7--|
|  |--2-2-2-2-2-2-2-2-2-2-2-2-2-2-2-2-3-3-3-3-3-3-3-3-5-5-5-5-5-5-5-5--|
|  |--0-0-0-0-0-0-0-0--------------------------------------------------|
|


|-------------------------------------------------------------------------------|
| Verse 4                                                                       |
|-------------------------------------------------------------------------------|
|
|  |-------------------------------3----------------------------------|
|  |------3-----3----------3-----3----------3-----3----------3-----3--|
|  |----0-----0----------0-----0----------0-----0----------0-----0----|
|  |--5-----5----------4-----4----------2-----2----------0-----0------|
|  |------------------------------------------------------------------|
|  |------------------------------------------------------------------|
|
|  |-------------------------------------------------------------------|
|  |------------------4-4-4-4-4-4-4-4----------------------------------|
|  |--5-5-5-5-5-5-5-5-5-5-5-5-5-5-5-5-4-4-4-4-4-4-4-4-4-4-4-4-4-4-4-4--|
|  |--5-5-5-5-5-5-5-5-5-5-5-5-5-5-5-5-5-5-5-5-5-5-5-5-5-5-5-5-5-5-5-5--|
|  |--3-3-3-3-3-3-3-3-3-3-3-3-3-3-3-3-5-5-5-5-5-5-5-5-5-5-5-5-5-5-5-5--|
|  |----------------------------------3-3-3-3-3-3-3-3-3-3-3-3-2-2-2-2--|


|-------------------------------------------------------------------------------|
| Solo                                                                          |
|-------------------------------------------------------------------------------|
|
|  |-------------------------------------------------------------------|
|  |-------------------------------------------------------------------|
|  |------------------4-4-4-4-4-4-4-4-5-5-5-5-5-5-5-5------------------|
|  |--2-2-2-2-2-2-2-2-4-4-4-4-4-4-4-4-5-5-5-5-5-5-5-5-5-5-5-5-4-4-4-4--|
|  |--2-2-2-2-2-2-2-2-2-2-2-2-2-2-2-2-3-3-3-3-3-3-3-3-5-5-5-5-5-5-5-5--|
|  |--0-0-0-0-0-0-0-0---------------------------------3-3-3-3-2-2-2-2--|
|  |                                                                   |
|  |------7-----7---7-----7-----7---7-----8-----8---8------------------|
|  |--8-8---8-8---8---7-7---7-7---7---8-8---8-8---8---8-8-8-8-7-7-7-7--|
|  |-------------------------------------------------------------------|
|  |-------------------------------------------------------------------|
|  |-------------------------------------------------------------------|
|  |-------------------------------------------------------------------|
|
|  |-------------------------------------------------------------------|
|  |-------------------------------------------------------------------|
|  |------------------4-4-4-4-4-4-4-4-5-5-5-5-5-5-5-5-7-7-7-7-7-7-7-7--|
|  |--2-2-2-2-2-2-2-2-4-4-4-4-4-4-4-4-5-5-5-5-5-5-5-5-7-7-7-7-7-7-7-7--|
|  |--2-2-2-2-2-2-2-2-2-2-2-2-2-2-2-2-3-3-3-3-3-3-3-3-5-5-5-5-5-5-5-5--|
|  |--0-0-0-0-0-0-0-0--------------------------------------------------|
|  |                                                                   |
|  |------7-----7---7-----7-----7---7-----8-----8---8------------------|
|  |--8-8---8-8---8---7-7---7-7---7---8-8---8-8---8---8-8-8-8-8-8-8-8--|
|  |-------------------------------------------------------------------|
|  |-------------------------------------------------------------------|
|  |-------------------------------------------------------------------|
|  |-------------------------------------------------------------------|
|
|  |------------------------------------------------------|
|  |------------------------------------------------------|
|  |--7-7-7-7-7-7-7-7-7-7-7-7-7-7-7-7-7-7-7-7-7-7-7-7-7~--|
|  |--7-7-7-7-7-7-7-7-7-7-7-7-7-7-7-7-7-7-7-7-7-7-7-7-7~--|
|  |--5-5-5-5-5-5-5-5-5-5-5-5-5-5-5-5-5-5-5-5-5-5-5-5-5~--|
|  |------------------------------------------------------|
|  |                                                      |
|  |------------------------------------------------------|
|  |--7-7-7-7-7-7-7-7-8-8-8-8-8-8-8-8-7-7-7-7-7-7-7-7-8~--|
|  |------------------------------------------------------|
|  |------------------------------------------------------|
|  |------------------------------------------------------|
|  |------------------------------------------------------|
|

|-------------------------------------------------------------------------------|
| Verse 5                                                                       |
|-------------------------------------------------------------------------------|
|
|  |------------------------------------------------------------------|
|  |------3-----3----------3-----3----------3-----3----------3-----3--|
|  |----0-----0----------0-----0----------0-----0----------0-----0----|
|  |--5-----5----------5-----5----------5-----5----------5-----5------|
|  |------------------------------------------------------------------|
|  |------------------------------------------------------------------|
|  |                                                                  |
|  |--10---------------10---------------10---------------10----15-----|
|  |--------8----------------8----------------8-----------------------|
|  |------------------------------------------------------------------|
|  |------------------------------------------------------------------|
|  |------------------------------------------------------------------|
|  |------------------------------------------------------------------|
|
|  |------------------------------------------------------------------|
|  |------3-----3----------3-----3----------3-----3----------3-----3--|
|  |----0-----0----------0-----0----------0-----0----------0-----0----|
|  |--5-----5----------4-----4----------2-----2----------0-----0------|
|  |------------------------------------------------------------------|
|  |------------------------------------------------------------------|
|
|  |-------------------------------------------------------------------|
|  |------------------4-4-4-4-4-4-4-4----------------------------------|
|  |--5-5-5-5-5-5-5-5-5-5-5-5-5-5-5-5-4-4-4-4-4-4-4-4-4-4-4-4-4-4-4-4--|
|  |--5-5-5-5-5-5-5-5-5-5-5-5-5-5-5-5-5-5-5-5-5-5-5-5-5-5-5-5-5-5-5-5--|
|  |--3-3-3-3-3-3-3-3-3-3-3-3-3-3-3-3-5-5-5-5-5-5-5-5-5-5-5-5-5-5-5-5--|
|  |----------------------------------3-3-3-3-3-3-3-3-3-3-3-3-3-3-3-3--|
|
|  |------------------------------------------------------------------|
|  |------3-----3----------3-----3----------3-----3----------3-----3--|
|  |----0-----0----------0-----0----------0-----0----------0-----0----|
|  |--5-----5----------4-----4----------2-----2----------0-----0------|
|  |------------------------------------------------------------------|
|  |------------------------------------------------------------------|
|
|  |-------------------------------------------------------------------|
|  |------------------4-4-4-4-4-4-4-4----------------------------------|
|  |--5-5-5-5-5-5-5-5-5-5-5-5-5-5-5-5-4-4-4-4-4-4-4-4-4-4-4-4-4-4-4-4--|
|  |--5-5-5-5-5-5-5-5-5-5-5-5-5-5-5-5-5-5-5-5-5-5-5-5-5-5-5-5-5-5-5-5--|
|  |--3-3-3-3-3-3-3-3-3-3-3-3-3-3-3-3-5-5-5-5-5-5-5-5-5-5-5-5-5-5-5-5--|
|  |----------------------------------3-3-3-3-3-3-3-3-3-3-3-3-3-3-3-3--|
|
|  |-------------------------------------------------------------------|
|  |------------------4-4-4-4-4-4-4-4----------------------------------|
|  |--5-5-5-5-5-5-5-5-5-5-5-5-5-5-5-5-4-4-4-4-4-4-4-4-4-4-4-4-4-4-4-4--|
|  |--5-5-5-5-5-5-5-5-5-5-5-5-5-5-5-5-5-5-5-5-5-5-5-5-5-5-5-5-5-5-5-5--|
|  |--3-3-3-3-3-3-3-3-3-3-3-3-3-3-3-3-5-5-5-5-5-5-5-5-5-5-5-5-5-5-5-5--|
|  |----------------------------------3-3-3-3-3-3-3-3-3-3-3-3-3-3-3-3--|
|
|  |------------------------------------------------------|
|  |------------------4-4-4-4-4-4-4-4---------------------|
|  |--5-5-5-5-5-5-5-5-5-5-5-5-5-5-5-5-4-4-4-4-4-4-4-4-4~--|
|  |--5-5-5-5-5-5-5-5-5-5-5-5-5-5-5-5-5-5-5-5-5-5-5-5-5~--|
|  |--3-3-3-3-3-3-3-3-3-3-3-3-3-3-3-3-5-5-5-5-5-5-5-5-5~--|
|  |----------------------------------3-3-3-3-3-3-3-3-3~--|
|

|-------------------------------------------------------------------------------|
| Outro (Almost inaudible, with a delay effect)                                 |
|-------------------------------------------------------------------------------|
|
|  |--10-----------10------------10----------10----10-----------10--------|
|  |-------8-------------8-------------8------------------8------------8--|
|  |----------------------------------------------------------------------|
|  |----------------------------------------------------------------------|
|  |----------------------------------------------------------------------|
|  |----------------------------------------------------------------------|
|
|  |--15-----------7---------------------------------12--|
|  |--15-----------8---------------------------------13--|
|  |-----------------------------------------------------|
|  |-----------------------------------------------------|
|  |-----------------------------------------------------|
|  |-----------------------------------------------------|
|
  development and support by
dmitry ivanov