rock
 
|tablatures   |lyrics   |discussion forums   |more tabs @ XGuitar.com

Green Day tabs

Wake Me Up When September Ends bass tab

-----------------------------------------------------------------------------
		WAKE ME UP WHEN SEPTEMBER ENDS - Green Day
-----------------------------------------------------------------------------

Tabbed By : Heavymetal_91
e-mail:

Tuning: EADG

 Riff 1  (1:47)
G|--------------------------------------------------------------------------|
D|--------------------------------------------------------------------------|
A|-3-3-3-3-3-3-3-3-3-3-3-3-3-3-3-3------------------------------------------|
E|---------------------------------3-3-3-3-3-3-3-3-3-3-3-3-3-3-3-3----------|

  Riff 2  (1:56)
G|--------------------------------------------------------------------------|
D|--------------------------------------------------------------------------|
A|-5-5-5-5-5-5--4-4-4-4-4-4-3--3-3-3-3-3--2-2-2-2-2-2-----------------------|
E|--------------------------------------------------------------------------|
  Riff 3  (2:05)
G|--------------------------------------------------------------------------|
D|--------------------------------------------------------------------------|
A|-3-3-3-3-3-3-3-3-3-3-3-3-3-3-3-3------------------------------------------|
E|---------------------------------3-3-3-3-3-3-3-3-3-3-3-3-2-2-2-2----------|
  Riff 4  (2:14)
G|--------------------------------------------------------------------------|
D|--------------------------------------------------------------------------|
A|-----------------2-2-2-2-2-2-2-2-3-3-3-3-3-3-3-3--------------------------|
E|-0-0-0-0-0-0-0-0---------------------------------3-3-3-3-2-2-2-2----------|

G|--------------------------------------------------------------------------|
D|--------------------------------------------------------------------------|
A|-----------------2-2-2-2-2-2-2-2-3-3-3-3-3-3-3-3-5-5-5-5-5-5-5-5----------|
E|-0-0-0-0-0-0-0-0----------------------------------------------------------|

  Riff 2  (2:33)
G|--------------------------------------------------------------------------|
D|--------------------------------------------------------------------------|
A|-5-5-5-5-5-5--4-4-4-4-4-4--3-3-3-3-3-3--2-2-2-2-2-2----------------------|
E|--------------------------------------------------------------------------|

  Riff 3  (2:41)
G|--------------------------------------------------------------------------|
D|--------------------------------------------------------------------------|
A|-3-3-3-3-3-3-3-3-3-3-3-3-3-3-3-3------------------------------------------|
E|---------------------------------3-3-3-3-3-3-3-3-3-3-3-3-2-2-2-2----------|

Riff 4  (2:14)
G|--------------------------------------------------------------------------|
D|--------------------------------------------------------------------------|
A|-----------------2-2-2-2-2-2-2-2-3-3-3-3-3-3-3-3--------------------------|
E|-0-0-0-0-0-0-0-0---------------------------------3-3-3-3-2-2-2-2----------|

G|--------------------------------------------------------------------------|
D|--------------------------------------------------------------------------|
A|-----------------2-2-2-2-2-2-2-2-3-3-3-3-3-3-3-3-5-5-5-5-5-5-5-5----------|
E|-0-0-0-0-0-0-0-0----------------------------------------------------------|
  Riff 5  (3:08)
G|--------------------------------------------------------------------------|
D|--------------------------------------------------------------------------|
A|-5-5-5-5-5-5-5-5-5-5-5-5-5-5-5-5-5~---------------------------------------|
E|--------------------------------------------------------------------------|

  Riff 1  (3:34)
G|--------------------------------------------------------------------------|
D|--------------------------------------------------------------------------|
A|-3-3-3-3-3-3-3-3-3-3-3-3-3-3-3-3------------------------------------------|
E|---------------------------------3-3-3-3-3-3-3-3-3-3-3-3-3-3-3-3----------|

  Riff 2  (3:43)
G|--------------------------------------------------------------------------|
D|--------------------------------------------------------------------------|
A|-5-5-5-5-5-5--4-4-4-4-4-4--3-3-3-3-3-3--2-2-2-2-2-2-----------------------|
E|--------------------------------------------------------------------------|

  Riff 1  (3:53)  X3
G|--------------------------------------------------------------------------|
D|--------------------------------------------------------------------------|
A|-3-3-3-3-3-3-3-3-3-3-3-3-3-3-3-3------------------------------------------|
E|---------------------------------3-3-3-3-3-3-3-3-3-3-3-3-3-3-3-3----------|

 End On E|-3~--|

| /  slide up
| \  slide down
| h  hammer-on
| p  pull-off
| ~  vibrato
| +  harmonic
| x  Mute note
=============================================================================
  development and support by
dmitry ivanov