rock
 
|tablatures   |lyrics   |discussion forums   |more tabs @ XGuitar.com

Green Day tabs

Waiting guitar tab

From: JesusLopez 
Artist:	green day
Album:	warning
Song:	waiting
guitar tabs and/or chords
URL:	http://

From: JesusLopez
Group: Green Day
Title: waiting

intro/verse
|-------------------------------------------------------------------------
|-------------------------------------------------------------------------
|-------------6-6-6-6-6-6-------------6-6-6-6-6-6-------------6-6-6-6-6-6-
|-6-6-6-6-6-6-6-6-6-6-6-6-8-8-8-8-8-8-6-6-6-6-6-6-6-6-6-6-6-6-6-6-6-6-6-6-
|-6-6-6-6-6-6-4-4-4-4-4-4-8-8-8-8-8-8-4-4-4-4-4-4-6-6-6-6-6-6-4-4-4-4-4-4-
|-4-4-4-4-4-4-------------6-6-6-6-6-6-------------4-4-4-4-4-4-------------

 -------------------------|
 -------------------------|
 -------------6-6-6-6-6-6-|
 -8-8-8-8-8-8-6-6-6-6-6-6-|
 -8-8-8-8-8-8-4-4-4-4-4-4-|
 -6-6-6-6-6-6-------------|

chorus

|--------------------------------------------------|
|--------------------------------------------------|
|------------------8-8-8-8---------6-6-6-------6-6-|
|--3-3-3-3-2-2-2-2-8-8-8-8-8-8-8-8-6-6-6-6-6-6-6-6-|
|--3-3-3-3-2-2-2-2-6-6-6-6-8-8-8-8-4-4-4-6-6-6-4-4-|
|--1-1-1-1-0-0-0-0---------6-6-6-6-------4-4-4-----|

chorus 2

|------------------------------------------------------------------|
|------------------------------------------------------------------|
|------------------8-8-8-8---------6-6-6-------6-6-6-------6---6---|
|--3-3-3-3-2-2-2-2-8-8-8-8-8-8-8-8-6-6-6-6-6-6-6-6-6-6-6-6-6-6-6-6-|
|--3-3-3-3-2-2-2-2-6-6-6-6-8-8-8-8-4-4-4-6-6-6-4-4-4-6-6-6-4-6-4-6-|
|--1-1-1-1-0-0-0-0---------6-6-6-6-------4-4-4-------4-4-4---4---4-|

solo

|-------------------------------------------------------------1-|
|--------------------------------------------------3---3-3---2--|
|-8/5--3-5-6-5-3--8/5--3-5-6-5-3--5/1--3-5-6-5-3--3-3-6-3---1---|
|---------------------------------------------------------------|
|---------------------------------------------------------------|
|---------------------------------------------------------------|

then without distortion

|-------------------------------------------------------------------------
|-------------------------------------------------------------------------
|-------------6-6-6-6-6-6-------------6-6-6-6-6-6-------------6-6-6-6-6-6-
|-6-6-6-6-6-6-6-6-6-6-6-6-8-8-8-8-8-8-6-6-6-6-6-6-6-6-6-6-6-6-6-6-6-6-6-6-
|-6-6-6-6-6-6-4-4-4-4-4-4-8-8-8-8-8-8-4-4-4-4-4-4-6-6-6-6-6-6-4-4-4-4-4-4-
|-4-4-4-4-4-4-4-4-4-4-4-4-6-6-6-6-6-6-4-4-4-4-4-4-4-4-4-4-4-4-4-4-4-4-4-4-
  development and support by
dmitry ivanov