rock
 
|tablatures   |lyrics   |discussion forums   |more tabs @ XGuitar.com

Green Day tabs

Waiting bass tab

Song: Waiting
Artist: Green Day
Album: Warning

Thanks to the guy who did the original, it was close but the chorus was way off. Here's the corrected version:

Intro
G-----------
D-----------
A--4--------
E-----6--4--

Verse/Bridge
G-------------------------------------------
D-------------------------------------------
A------------4-4-4-4-4-----------4-4-4-4-4--
E--4-4-4-4-4-----------6-6-6-6-6------------

Chorus
G-----------------------------------------------------------
D-----------------------------------------------------------
A--8-8-8-8/16-7-7-7-7-6-6-6-6------------4-4-4-------4-4-4--
E-----------------------------6-6-6-6-6--------4-4-4--------

2nd Chorus
G----------------------------------------
D----------------------------------------
A--8-8-8-8/16-7-7-7-7-6-6-6-6------------
E-----------------------------6-6-6-6-6--
				 X3
G----------------------------------|-------------------------------
D----------------------------------|-------------------------------
A--4-4-4-------4-4-4--------4---4--|--4-4-4-------4-4-4-6-6-6-6-6--
E--------4-4-4-------4-4-4----4----|--------4-4-4------------------

3rd Chorus
G--------------------------------
D--------------------------------
A--8-8-8-8/16-7-7-7-7-6-6-6-6----
E-----------------------------6--
				 X3
G----------------------------------|---------------------------------
D----------------------------------|---------------------------------
A--4-4-4-------4-4-4--------4---4--|--4-4-4-------4-4-4-6-6-6-6-6----
E--------4-4-4-------4-4-4----4----|--------4-4-4-----------------4--

Outro					  X3
G-------------------------------------------|-------------------------------------
D-------------------------------------------|-------------------------------------
A------------4-4-4-4-4-----------4-4-4-4-4--|------------4-4-4-4-4-----------(4)--
E--4-4-4-4-4-----------6-6-6-6-6------------|--4-4-4-4-4-----------6-6-6-6-6------

Intro X1
Verse X4
Chorus X1
Verse X4
2nd Chorus X1
Verse X2
3rd Chorus X1
Outro X1


XXXXXXXXX
  development and support by
dmitry ivanov