rock
 
|tablatures   |lyrics   |discussion forums   |more tabs @ XGuitar.com

Green Day tabs

Tired Of Waiting For You bass tab

Green Day - Tired Of Waiting For You
Submitted By: punx alive
EMail: davidmeechan@tiscali.co.uk

Tuning: Standard (E A D G)
Bassist: Mike dirnt

Slide the notes for the intro and main riff

intro and chourus
G|---------------------------------------------------------------------------||
D|---------------------------------------------------------------------------||
A|---------------------------------------------------------------------------||
E|--1-3-1-3-1-3-1-3-1-3-1-3----------------------------------------------||

Verse



G|---------------------------------------------------------------------------||
D|---------------------------------------------------------------------------||
A|---33---33-----------------------------------------------------------------||
E|-33--33----33--------------------------------------------------------------||




G|---------------------------------------------------------------------------||
D|---------------------------------------------------------------------------||
A|---------------------------------------------------------------------------||
E|------7-5-7-5-3--7-5-7-5-3-----------------------------------------------||
"its your life"




G|---------------------------------------------------------------------------||
D|---------------------------------------------------------------------------||
A|---------------------------------------------------------------------------||
E|----5555-3333-5555-3333-------------------------------------------||
please don't keep me waiting


i'm sure this is at lest 90% right.
Done pretty simple any problems email me at Liam_99@hotmail.com
  development and support by
dmitry ivanov