rock
 
|tablatures   |lyrics   |discussion forums   |more tabs @ XGuitar.com

Green Day tabs

Time Of Your Life guitar tab

Time of your life by Green Day 

Tabbed by David Hill (gjhill@iafrica.com)
originally by:
Date: Tue, 24 Feb 1998 21:51:56 +1300
From: Jacinta 


Chords:

G        :320033
C        :032033
Dsus4    :000233
Em       :022033

Tab 1 & Intro

   G                                  C                 Dsus4
|----------------------------------|-----------------------------------|
|----------3---------------3-------|---------3-----------------3-------|
|------------0---------------0-----|------------0----------2-----2-----|
|-----0--------0------0--------0---|-----2---------2----0----------0---|
|----------------------------------|--3--------------------------------|
|--3---------------3---------------|-----------------------------------|

Tab 2

   Em            Dsus4                C                 G
|----------------------------------|-----------------------------------|
|-------3----------------3---------|----------3----------------3-------|
|---------0---------2------2-------|------------0----------------0-----|
|----2------2----0-----------0-----|-----2--------2-------0--------0---|
|--2-------------------------------|--3--------------------------------|
|----------------------------------|--------------------3--------------|


Tab 3


   Em              G                  Em              G
|----------------------------------|-----------------------------------|
|---------3---------------3--------|----------3---------------3--------|
|-----------0---------------0------|------------0---------------0------|
|-----2-------2-------0-------0----|-----2--------2------0--------0----|
|----------------------------------|-----------------------------------|
|--0---------------3---------------|--0---------------3----------------|


   Em             Dsus4
|----------------------------------|
|---------3---------------3--------|
|-----------0--------2------2------|
|-----2-------2---0-----------0----|
|----------------------------------|
|--0-------------------------------|



Lyrics

Tab 1
Another turning point a fork stuck in the road 
Time grabs you by the wrist directs you where to go

Tab 2
So make the best of these days and don't ask why
It's not a question but a lesson learned in time

Chorus Tab 3
It's something unpredictable in the end it's right
I hope you have the time of your life.  (Start struming G  C  Dsus4)

So take the photographs and stillframes in your mind
Hang it on a shelf and goodav than good times

Tatoos and memories and asking on trial
For what it's worth it was worth all the while

Chorus
Instrumental(Strum over Violins)
Chorus

End with Tab 1 and then |---------|
                        |---------|
                        |--2------|
                        |----0----|
                        |------0--|  and end on a G
                        |---------|
  development and support by
dmitry ivanov