rock
 
|tablatures   |lyrics   |discussion forums   |more tabs @ XGuitar.com

Green Day tabs

The One I Want guitar tab


Date: Fri, March 19 1999
From: Peter Ferragine (pferragine@interhop.net)
Group: Green Day
Album: 1039/smoothed out slappy hours
Released: 1990 lookout records
Track: 18
Title: the one i want

Eb tuning - song's probably tabbed out wrong but I got sick of trying


intro

|---------------|
|---------------|
|-8:------------|
|-8:----3-3-3-3-|
|-6:----3-3-3-3-|
|-------1-1-1-1-|

verse

|-------------------------------------------------|
|-------------------------------------------------|
|-------------------------------------------------|
|-8-8-8-8-8-8-3-3-3-3-3-3-6-6-6-6-6-6-2-2-2-2-2-2-|
|-8-8-8-8-8-8-3-3-3-3-3-3-6-6-6-6-6-6-2-2-2-2-2-2-|
|-6-6-6-6-6-6-1-1-1-1-1-1-4-4-4-4-4-4-0-0-0-0-0-0-|

chorus

|---------------------------------|
|---------------------------------|
|-6-6-6-6-------------------------|
|-6-6-6-6-6-6-6-6-8-8-8-8-8-8-8-8-|
|-4-4-4-4-6-6-6-6-8-8-8-8-8-8-8-8-|
|---------4-4-4-4-6-6-6-6-6-6-6-6-|

lyrics

sitting in my room last night staring at the mirror 
i couldn't find a reason why i couldn't be near her
'cause you are the one that started to make me feel this way
and every night i'm thinking about the words you'd say
pictures going through my mind when we're together
all these long and sleepless nights will i ever get better
now you know how i feel this love is forever 
you make my life seem so unreal will i ever get better?
  development and support by
dmitry ivanov