rock
 
|tablatures   |lyrics   |discussion forums   |more tabs @ XGuitar.com

Green Day tabs

The Judge's Daughter guitar tab

From: Jesus Lopez 
Artist:	green day
Album:	1039/Smoothed Out Slappy Hours
Song:	"The Judge's Daughter" 

guitar tab and chords

Chords Used:

C  : X 3 5 5
D  : X 5 7 7
F  : 1 3 3
G  : 3 5 5

VERSE 1:

  G              F                   C                    G
Princess in a schoolgirl's dream may I please speak with you?
     G               F                    C               G
I'm having troubles with control and it's all because of you
   G             F               C                   G
Today I kept on falling down I thought it was the street
G             F                 C                 G
So I look down at my shoes they were on the wrong feet

CHORUS:

       C               D               G             F   G
And I find it hard to be myself... ...can you please explain?
   C                D                        G            F   G
I do not think that it's my health... ...you are the one to blame
    C              D
You are the one I wish I had
     C                    D                   G            F   G
And now my girlfriend is getting mad... ...I cannot call this sane
   G            F   G
I cannot call this sane

INTERLUDE: G F C G - 2x

VERSE 2:

   G            F            C               G
Today as I was walking down you bumped into me
     G                     F             C                 G
You said, "excuse me" and walked away as I dropped to my knees
    G                 F                   C              G
I prayed to the being in the sky that my parents told me off
  G                    F            C               G
I asked about you but no reply no clues about your love

(CHORUS)
                                           
VERSE 3:                                         
        
G F G                                          
      Can we find a way
G F G
     So that you can stay
G F G                     G F G
     I think I'm gonna pop

SOLO: under G F C G - 4x

e|------3-------3-----------------------------------------------------------
B|----3-------3-------------------------------------------------------------
G|--5^-----5^------5-3--3 2---2h3--2------------------------3-0---3-5-3-5^--
D|--------------------------3--------3--0--------3-5-5-5-5------5-----------
A|--------------------------------------0--3-5-5----------------------------
E|--------------------------------------------------------------------------

-----3-3------3-3----3-6h3--------------------------------------------------
-----3-3------3-3--3--------6-3-6^-6^-6-3-----------------------------------
--5-------5^------------------------------5^-5^h3--3-5~-5-3--5h3--3---------
---------------------------------------------------------------------5-4-3--
----------------------------------------------------------------------------
----------------------------------------------------------------------------

------------------------------------------------------------------------
--------------------------15------15------15------15--15----------------
-------------------17h15-----17^-----17^-----17^---------17^--17^--15~--
--------------5-5-------------------------------------------------------
--5-4--3 1^-------------------------------------------------------------
------------------------------------------------------------------------

-------------------------------15--------------15-16^---16^ ---------------
----------------------------15-----18^----18^------------------------------
--15-15--17h15------15--17^-----------------------------------3----5h3-----
---------------17-------------------------------------------------------5--
---------------------------------------------------------------------------
---------------------------------------------------------------------------

-----------3-----------3---------------------------|
--------3----------3-------------------------------|
--3-5^---------5^----------5^--5^h3-----3----3--3--|
-------------------------------------5-------------|
---------------------------------------------------|
---------------------------------------------------|

(CHORUS)

(VERSE 3)

(End with G)
  development and support by
dmitry ivanov