rock
 
|tablatures   |lyrics   |discussion forums   |more tabs @ XGuitar.com

Green Day tabs

The Grouch bass tab

Song: The Grouch
Artist: Green Day
Album: Nimrod


Intro/Bridge
G-----------------------------------------
D-----------------------------------------
A--------------5---------7-7-7-7----------
E--0-2-5-0-0-5---5-5-5-5---------5-5-5-5--

Verse
G------------------------------------------------------------
D------------------------------------------------------------
A----------5-------5--------------5---------7-7-7-7----------
E--5-0-0-5---5-0-0---0-0--5-0-0-5---5-5-5-5---------5-5-5-5--

Chorus (Last time don't play the second fill, before the bridge)
G-------------------------------------------------------------------------------
D-------------------------------------------------------------------------------
A-----5-5------------5-5----7h5h4------5-5------------5-5----7-7-7-7-7-7h5h4--
E--2------5--0-0--2------5----------2------5--0-0--2------5-------------------

Outro Verse						       X3
G------------------------------------|---------------------------
D------------------------------------|---------------------------
A----------5-------5--------------5--|----------7-7-7-7----------
E--5-0-0-5---5-0-0---0-0--5-0-0-5----|--5-5-5-5---------5-5-5-5--



Intro X1
Verse X1
Chorus X1
Verse X2
Chorus X1
Verse X1
Chorus X1
Bridge X1
Verse X1
Outro Verse X1 
  development and support by
dmitry ivanov