rock
 
|tablatures   |lyrics   |discussion forums   |more tabs @ XGuitar.com

Green Day tabs

Sweet Children guitar tab


Date: Sun, April 11 1999
From: Peter Ferragine (pferragine@interhop.net)
Group: Green Day
Album: Kerplunk
Released: 1991 lookout records
Track: 13
Title: sweet children


intro/verse

|---------------------------------|
|---------------------------------|
|-8-8-8-8-8-8---------6-6-6-6-6-6-|
|-8-8-8-8-8-8-6-6-6-6-6-6-6-6-6-6-|
|-6-6-6-6-6-6-6-6-6-6-4-4-4-4-4-4-|
|-------------4-4-4-4-------------|

chorus

|-----------------------------|
|-----------------------------|
|---------------------6-6-----|
|-8-8-8-8-8-8-6-6-6-6-6-6-6-6-|
|-8-8-8-8-8-8-6-6-6-6-4-4-6-6-|
|-6-6-6-6-6-6-4-4-4-4-----4-4-|

lyrics

see a young girl so soft and blonde
doesn't attack me but she did once
intoxications in her veins
sweet young boy plays with her brain
lydia'll bring to life
putting his hand on her thigh
ability has now been ripped
take it away, i'd rather sit
sweet children
johnny's playing fun and games
or else he's in the storage shed?
running from the light of day
or maybe lie and celebrate
the funny circus from his head
follow me if you understand
i'll trick her so she'll do it
then i'll sing and now we run
  development and support by
dmitry ivanov