rock
 
|tablatures   |lyrics   |discussion forums   |more tabs @ XGuitar.com

Green Day tabs

Sweet Children bass tab

Artist:Green Day
Song: Sweet Children
Album:Kerplunk
Tabbed By Glen
Half tuning. E becomes Eb and every other string goes down half a step too.
If you couldn’t be bothered half tuning your guitar just play the
High Eb (6th fret on A string or 1st fret on D string).

p         = pull off
h         = hammer on
/          = slide
#         = deadstrum
pause  = |---  ---|


Intro: (2 bars of guitar intro then……)
G|-9-9-99-9-9-99-9-9--99-------|
D|-----------------------------|
A|-----------------------------|
E|-----------------------------|


Verse:
G|------------|
D|------------|
A|-7777--55---| (x8)
E|-----55-----|


Chorus:
G|----------------|
D|----------------|
A|--------5-------| (x4)
E|-0000-55--0-5---|


Bridge:
G|-----------------|
D|-----------------|
A|--------5--------| (x4)
E|-7777-55--0-5----|





Order:
Intro
Verse
Chorus
Intro
Verse
Chorus
Bridge
Chorus (without singing)
Chorus
  development and support by
dmitry ivanov