rock
 
|tablatures   |lyrics   |discussion forums   |more tabs @ XGuitar.com

Green Day tabs

Suffocate guitar tab

September 1 2002

Standard Tuning

Intro
e-----------------------------------------------
B--------------------------7--6--4--------------
G---6-6-6-6-6-6-6------------------6------------
D-6-6-6-6-6-6-6-6-------------------------------
A-6-4-4-4-4-4-4-4-------------------------------
E-4---------------------------------------------
P.M..............

Verse

3 AM I’m drunk again…
e----------------------------------------------
B----------------------------------------------
G-6-6-6-6-6-6-6-6------------------------------
D-6-6-6-6-6-6-6-6------------------------------
A-4-4-4-4-4-4-4-4------------------------------
E----------------------------------------------
P.M..............

Make it stop...
e----------------------------------------------
B----------------------------------------------
G----------------------------------------------
D-4-4-4-4-4--6-6-6-6-6-------------------------
A-4-4-4-4-4--6-6-6-6-6-------------------------
E-2-2-2-2-2--4-4-4-4-4-------------------------


Pre-chorus

Well slipped into...
e----------------------------------------------
B----------------------------------------------
G------------6-6-6-6-6-------------------------
D-4-4-4-4-4--6-6-6-6-6--4-4-4-4-4-6-6-6-6-6----
A-4-4-4-4-4--4-4-4-4-4--4-4-4-4-4-6-6-6-6-6----
E-2-2-2-2-2-------------2-2-2-2-2-4-4-4-4-4----

Chorus

So when you think…
e-----------------------------------------------
B-----------------------------------------------
G-6-6-6-----------------------------------------
D-6-6-6--4--6-6---------------------------------
A-4-4-4--4--6-6---------------------------------
E--------2--4-4---------------------------------

That I know that I will someday...
e----------------------------------------------------------------
B----------------------------------------------------------------
G------------6------------------6---------------------6-----6----
D.4-4-4-4-4--6--6-6--4-4-4-4-4--6--6-6--4--6-6--6-6-6-6-6-6-6----
A.4-4-4-4-4--4--6-6--4-4-4-4-4--4--6-6--4--6-6--6-6-6-4-6-6-4----
E-2-2-2-2-2-----4-4--2-2-2-2-2-----4-4--2--4-4--4-4-4---4-4------

Repeat all

e----------------------------------------------
B----------------------------------------------
G--------------6-------------------------------
D.4-4-4-x-x-x--6--6-6-x-x-x-------------------- x 4
A.4-4-4-x-x-x--4--6-6-x-x-x--------------------
E-2-2-2-x-x-x-----4-4-x-x-x--------------------

Last time do this
e-----------------------------------------------------------
B-----------------------------------------------------------
G-------------6---------------------6-------6---------------
D.4-4-4-x-x-x-6--6-6-6-6-6--4--6-6--6--6-6--6--6-6--6-6-6---
A.4-4-4-x-x-x-4--6-6-6-6-6--4--6-6--4--6-6--4--6-6--6-6-6---
E-2-2-2-x-x-x----4-4-4-4-4--2--4-4-----4-4-----4-4--4-4-4---

Chorus

So when you think…
e------------------------------------------------
B------------------------------------------------
G-6-6-6------------------------------------------
D-6-6-6--4--6-6----------------------------------
A-4-4-4--4--6-6----------------------------------
E--------2--4-4----------------------------------

That I know that I will someday...
e---------------------------------------------------------------------
B---------------------------------------------------------------------
G------------6------------------6----------------6--------------------
D.4-4-4-4-4--6--6-6--4-4-4-4-4--6--6-6--4-4-4-4--6-6-6----------------
A.4-4-4-4-4--4--6-6--4-4-4-4-4--4--6-6--4-4-4-4--4-6-6----------------
E-2-2-2-2-2-----4-4--2-2-2-2-2-----4-4--2-2-2-2----4-4----------------

That  I know that I will suffocate...
e-----------------------------------------------------
B-----------------------------------------------------
G------------6-----------------6--------6-------------
D.4-4-4-4-4--6--6-6--4--6-6-6--6-6-6-6--6-6-6-6-6-6---
A.4-4-4-4-4--4--6-6--4--6-6-6--4-6-6-6--4-6-6-6-6-6---
E-2-2-2-2-2-----4-4--2--4-4-4----4-4-4----4-4-4-4-4---

Outro

e--------------------------------
B--------------------------------
G----------------6---------------
D.4-4-4*---------6--6-6--- x4 ---
A.4-4-4*---------4--6-6----------
E-2-2-2*------------4-4----------

*(let ring)

Finish with this
e--------------------------------------------------
B--------------------------------------------------
G---6-----------------------------------------------
D-6-6------------------------------------------------
A-6-4------------------------------------------------
E-4-------------------------------------------------
p.m...
  development and support by
dmitry ivanov