rock
 
|tablatures   |lyrics   |discussion forums   |more tabs @ XGuitar.com

Green Day tabs

Suffocate bass tab

Artist: Green Day
Song: Suffocate
Tabbed by: greendaypunk

Intro/1st Verse:
g-----------------------------------5h77-5h77-5h77-5h77-5h77-5h77-5h77-5h77-|
d---------------------------------------------------------------------------|
a-5555555555555555-5555555555555555-----------------------------------------|
e---------------------------------------------------------------------------|

g---------------------------------|
d---5---------------5-------------|
a---------------------------------|
e-3----3-5-55-555-3----3-5-55-555-|

Verse:
g-------------------------------------------------------------------|
d-------------------------------------5-55------------5-55----------|
a-5555555555555555-555555555555542----------------------------------|
e---------------------------------5-3------5-55-555-3------5-55-555-|

Pre-Chorus:
g----------------------------------------------------|
d------------------555555555555542-------------------|
a---------------------------------5-5-5-55-55-55-555-|
e-3333333333333333-----------------------------------|

g-----------------------------------------------------|
d-5555555555555555-5555555555555555--7-7-77-77-77-777-|
a-----------------------------------------------------|
e-----------------------------------------------------|

Chorus:
g-------------------------------------------------|
d-------------------------------------------------|
a-5-555555--------5-555555--------5-555555--------|
e----------3---55----------3---55----------3---55-|

g-------------------------------------------------------|
d-------------------------------------------------------|
a--------5----------------5----------------5-------5----|
e-3-3-33---55-5555-3-3-33---55--5553-55-555--55-555--55-|

Bridge:
g------------------------------------------------------------|
d-----------------------5--------44-4-------55555------------|
a----------5-------------------5---7-754----------5----------|
e-33333333---55-55555-3---333------------3----------55-55555-|

g---------------------------------------|
d---------------------------------------|
a----------5---------------5-------5----|
e-33333333---55-5553-55-555--55-555--55-|
  development and support by
dmitry ivanov