rock
 
|tablatures   |lyrics   |discussion forums   |more tabs @ XGuitar.com

Green Day tabs

Strangeland guitar tab


Date: Sun, April 11 1999
From: Peter Ferragine (pferragine@interhop.net)
Group: Green Day
Album: Kerplunk
Released: 1991 lookout records
Track: 15
Title: strangeland


verse 

|-------------------------------|
|-------------------------------|
|-6-6-6-6-6-6-6-6-6-6-6-6-6-6-6-|
|-6-6-6-6-6-6-6-6-6-6-6-6-6-6-6-|
|-4-4-4-4-4-4-4-4-4-4-4-4-4-4-4-|
|-------------------------------|

|--------------------------------|
|--------------------------------|
|--------------------------------|
|-6-6-6-6-6-6-6----6-6-6-6-6-6-6-|
|-6-6-6-6-6-6-6----6-6-6-6-6-6-6-|
|-4-4-4-4-4-4-4----4-4-4-4-4-4-4-|
 
chorus

|-----------------------------------------|
|-----------------------------------------|
|-----------6-6-6-6-6---------------------|
|-4-4-4-4-4-6-6-6-6-6-4-4-4-4-4-6-6-6-6-6-|
|-4-4-4-4-4-4-4-4-4-4-4-4-4-4-4-6-6-6-6-6-|
|-2-2-2-2-2-----------2-2-2-2-2-4-4-4-4-4-|

solo (I took this idea from someone *shrug*)

|-4--4--4--4--4--|
|-6--4--7--6--7--|
|-6--6--6--6--6--|
|-6--6--6--6--6--|
|-4--4--4--4--4--|
|-4--4--4--4--4--|
 
|-4--4--4--4--4--4--4-|
|-6--6--4--7--7--7--4-|
|-6--6--6--6--6--6--6-|
|-6--6--6--6--6--6--6-|
|-4--4--4--4--4--4--4-|
|-4--4--4--4--4--4--4-|
 
lyrics

looking at the clouds in the sky
floating image in my mind
i don't believe i've found this
now i wonder where this place is from
evidence is everywhere 
start to run now i'm scared
strange beings all around
come everyone, to this place i've found
feeling phsyced
walking? wonder why
all my joys are open no more crimes
my eyes are clear 
now i'm cured
i only wanna be for sure
watch my life spin around in vibes?
so it rides farther to the side?
look in my head and you will find
mother love from all mankind
no matter where they say i have begun
                     
  development and support by
dmitry ivanov