rock
 
|tablatures   |lyrics   |discussion forums   |more tabs @ XGuitar.com

Green Day tabs

St. Jimmy bass tab

Green day - st. Jimmy
Tabbed By: Ian Marshall
Email: mary.marshall1@btopenworld.com

Tuning: Standard (E A D G)

im not sure about how many times to play each fret

intro
G|---------------
D|---------------
A|-5-0-5-0-5-0---
E|---------------


verse
G|------------------
D|------------------
A|-000-555-777-000--
E|------------------


chorus
G|--------------
D|--------------
A|-555555-77777-
E|--------------


interlude     X4          X4
G|----------------|----------------|----------------|----------------||
D|----------------|----------------|----------------|----------------||
A|---5---5-77777--|----777-333-666-|------5555-7777-12121212---------||
E|-5---5----------|-555------------|-5555-----------|----------------||


G|--------------------------------||
D|--------------------------------||
A|-----5555-77777777777-----------||
E|-5555---------------------------||


bridge
G|----------------||
D|----------------||
A|---5---5--------||
E|-5---3---5------||


END      X2          X1
G|----------------|-------
D|----------------|-------
A|----5-77--------|-------
E|-55------5------|-5555--


i think this is the best song on the album so have fun and please rate!
  development and support by
dmitry ivanov