rock
 
|tablatures   |lyrics   |discussion forums   |more tabs @ XGuitar.com

Green Day tabs

Sick Of Me guitar tab

Tuning: Normal
Notes: Simple, classic Green Day style song.

h = hammer-on
p = pull-off
b = bend
/ = slide up
\ = slide down
5 = power chord

Verse
   G5    C5  F5  G5  (x4)
e|---------------------------------------------------------------|
B|---------------------------------------------------------------|
G|-------5-------------------------------------------------------|
D|-5-----5---3---5-----------------------------------------------|
A|-5-----3---3---5-----------------------------------------------|
E|-3---------1---3-----------------------------------------------|

Chorus
   C5   G5   C5 G5  D5 G5   C5   G5   C5 G5  F5 D5
e|---------------------------------------------------------------|
B|---------------------------------------------------------------|
G|-5---------5------7-------5---------5------10-7----------------|
D|-5----5----5--5---7--5----5----5----5--5---10-7----------------|
A|-3----5----3--5---5--5----3----5----3--5---8--5----------------|
E|------3-------3------3---------3-------3-----------------------|

Bridge
   F5  D5  (x4)
e|---------------------------------------------------------------|
B|---------------------------------------------------------------|
G|-10--7---------------------------------------------------------|
D|-10--7---------------------------------------------------------|
A|-8---5---------------------------------------------------------|
E|---------------------------------------------------------------|


Order

Verse 1
Chorus
Verse 2
Chorus
Bridge
Verse chords
Chorus
Bridge (no lyrics)


Lyrics

Why can't you just admit that you've had it
You're sick of me
You're fed up with a unwanted habit
You're sick of me				(Verse 1)
Tell you lies, you've become so desensitized
Sick of me
Lost regrets, I can see that you've had it
You're sick of me

Wander out the door
I am on to you
You're comin' back for more			(Chorus)
Am I losing you?

Like a dog that just pissed on your barbecue
Sick of me
Losing faith and you still don't know what to do
Sick of me 					(Verse 2)
Loss of love and you hate everything and
You're sick of me
It's a waste but we still keep on tryin'
Sick of me

(Chorus)

So you got your problems
So you got it alright 				(Bridge)
Do you have a conscience
Do you have a reason now I'm sick of you too
  development and support by
dmitry ivanov